rock
 
|tablatures   |lyrics   |discussion forums   |more tabs @ XGuitar.com

Nirvana tabs

Heart-Shaped Box guitar tab

Heart Shape Box By Nirvana 
>From the Album  "In Utero"
Transcribed By Greg McGowan  (PunkRoc311@aol.com)
Words and Music By: Kurt Cobain

Hey all,here is the real way to Play "Heart Shaped Box" By Nirvana.  There is
no solo, FORGET IT!  I'm not killing myself for A solo.  This is my first
tab, So bear with me.
Tune down the whole Guitar 1 whole step. From top to bottom the pitches
should be: D,G,C,F,A,D  

^ =bend note up 1 whole step
Intro & Verses: Clean Electric Guitar

1------------------------------------------------------------------------------
2------------------------------------------------------------------------------
3-------4---------------------------------------4------------------4-4-4---2-1-
4----4----4--------5---------2----2--------4---4-------5-------------------2-0-
5--2--------------5---5----2----2---0----2----------5---5----------------------
6--------------3---------0---------------------------3----------0--------------


Chorus: Distorted electric
1------------------------------------------------------------------------------
2------------------------------------------------------------------------------
3-------4---------------------------------------4------------------4-4-4---2-1-
4----4----4--------5---------2----2--------4---4-------5-------------------2---
5--2--------------5---5----2----2---0----2----------5---5----------------------
6--------------3---------0---------------------------3----------0--------------

1------------------------------------------------------------------------------
2------------------------------------------------------------------------------
3---5-5-5-5-------3^----------------3^--------------------------------3^-------
4---5-5-5-5----------------5-5------------------2-2-2-2-2-2--------------------
5---2-2-2-2----------------5-5------------------2-2-2-2-2-2--------------------
6-----------------------------3-3------------------0-0-0-0-0-0-----------------

And now the SOLO...

  / =SLIDE
  ^ =WHOLE BEND
  ~=VIBRATO

e------------------------------------------------------------------------|
B------------------------------------------------------------------------|
G------------------------------------------------------------------------|
D------------------------------------------------------------------------|
A--0--0---~12--0--0--~10--0--0--^8--8--6--4--3-----0---0---~12---0---0---|
E------------------------------------------------------------------------|
                                         
E------------------------------------------------------------------------------|
B-----------------------------------------------------------------7-------7----|
G--------------------------------------------------2---------7---------7-----7-|
D--------------------------------------------------2------------7--------------|
A-~10--0--0--^8---8--6--4--3-----0-----------0--------5------------------------|
E------------------------------------------------------------------------------|
                                                         


From SG1967@aol.com Thu May  8 16:48:34 1997
Date: Sun, 27 Apr 1997 20:05:00 -0400 (EDT)
From: SG1967@aol.com
To: guitar@olga.net
Subject: heart shaped box solo

heart shaped box
nirvana

p= pull off
 )= bend
 (= release bend


Solo
Eb|----------)(------------)(-------------)(-------------------|
Bb|--------8---(8)------6---(6)------5---(5)-----3--1h0--------|
Gb|------------------------------------------------------------|
Db|-----7-------------5------------3---------------------------|
Ab|------------------------------------------------------------|
Db|------------------------------------------------------------|
      play twice then play this

Eb|------------------------------------------------
Bb|---2----------------------2---------------------
Gb|---2----------------------2---------------------
Db|---0----------------------0---------------------
Ab|------------------------------------------------
Db|------------------------------------------------
       let each note ring
  development and support by
dmitry ivanov