rock
 
|tablatures   |lyrics   |discussion forums   |more tabs @ XGuitar.com

Nirvana tabs

Hairspray Queen bass tab

 title:Hairspray queen
    by:Nirvana
    Album: incesticide
   Tabbed By: scott(scottos150@skatepile.com)

	If you think anything should be different please e-mail me your corrections.

Main Riff
G-------------------------|
D-------------------------|
A--5----------12----------|
E-----0/11-------13\------|

(1:52)
chourus
G-----------------------------------------|
D-----------------------------------------|
A-----------------------------------------|
E-----0-------------0-------------0-------|over and over

(2:46)
crazy bridge type thing
G-----------------------|
D-----------------------|
A--3-4-5-4-3-4-3-4------|keep accending a half step until its time for the main riff 
E-----------------------|

The next time into the crazy bass line thing start from were you left off
last and add some slides.

(3:52)
outro
G--------------------------------------|
D--------------------------------------|
A--------------------------------------|
E----6-5-0---5-4-0---4-3-0---3-2-3-2-0-|

	This song is crazy and I know my tab is not perfect,buts its
better than any thing else out there that I could find. So please submit
Corrections if you have any.
  development and support by
dmitry ivanov