rock
 
|tablatures   |lyrics   |discussion forums   |more tabs @ XGuitar.com

Nirvana tabs

Frances Farmer Will Have Her Revenge On Seattle bass tab

Here's the song.  Enjoy!
"FRANCES FARMER WILL HAVE HER REVENGE ON SEATTLE" BY NIRVANA
FROM THE ALBUM "IN UTERO"


INTRO:
                                                         x2
G-----|--------------------------------|-------------------|-----------
D-----|--------------------------------|-------------------|-----------
A-----|--6\(2)-5\(2)------6\(2)-4\(2)--|--2-2-2--2-2-2-2-2-|-----------
E-----|--------------------------------|-------------------|-2-2-2-----


VERSE:

G-----|--------------------------------------------------------|
D-----|--------------------------------------------------------|
A-----|--------------------------------------------------------|
E-----|--4-4-4-4--4-4-4-4--0-0-0-0--3-3-3-3--0-0-0-0--3-3-3-3--|

G-----|--------------------------------------|
D-----|--------------------------------------|
A-----|--2-2--2-2-2-2-2-2--2-2--2-2-2--------|
E-----|-------------------------------2-2-2--|


CHORUS:

G-----|--------------------------------------------------------------|
D-----|--------------------------------------------------------------|
A-----|--------------------------------------------------------------|
E-----|--4-4-4--4-4-4--7-7-7--5-5-5--2-2-2--2-2-2-2--2-2-2--2-2-2-2--|
                                                               X3
G-----|------------------------------|------------------------------|
D-----|------------------------------|------------------------------|
A-----|------------------------------|------------------------------|
E-----|--4-4-4--4-4-4--7-7-7--5-5-5--|--2-2--2-2-2-2--1-1--1-1-1-1--|
 
 G-----|-------------------------------------|
 D-----|-------------------------------------|  1ST TIME AROUND
 A-----|-------------------------------------|  BACK TO VERSE
 E-----|--3-3-3-3--3-3-3-3--0-0-0-0-0-0-0-0--|

 G-----|-----------------------------|
 D-----|-----------------------------|  2ND TIME AROUND
 A-----|-----------------------------|  PLAY INTERLUDE
 E-----|--3-3-3-3--3-3-3-3--0-0-0-0--|


INTERLUDE:
                          X3                                  X3
G-----||---------------------|--------------------------------||
D-----||---------------------|--------------------------------||
A-----||--------2-2-2-2-2/3--|--------------------------------||
E-----||--2-2-2--------------|--4-4--4-4-4-4--7-7-7-7--5-5-5--||

G-----|------------------------------------------------------------------|
D-----|------------------------------------------------------------------|
A-----|------------------------------------------------------------------|
E-----|--2-2-2--2-2-2--1-1-1--1-1-1--3-3-3-3--3-3-3-3--0-0-0-0--0-0-0-0--|

BACK INTO VERSE (ENDS THE SONG)
  development and support by
dmitry ivanov