rock
 
|tablatures   |lyrics   |discussion forums   |more tabs @ XGuitar.com

Nirvana tabs

Floyd The Barber bass tab

"Floyd the Barber" - Nirvana

submitted by Christopher aka Achilles

tune down 1/2 step

 intro (x7) verse riff chorus
Gb|------------|------------|-------------------------------------------------------------------|
Db|------------|------------|-------------------------------------------------------------------|
Ab|------------|------------|44-0--33--------44-0--33--------44-0---33--------44-0---33---------|
Eb|000-0h1-0h1-|000-0h1-0h1-|----55---44-440-----55---44-440-----555---44-440-----555---4444440-|


 solo
Gb|-----------------------------------------------------------|
Db|-----------------------------------------------------------|
Ab|-----------------1h3-31-310----------1h3-31-310-1h3-31-31--|
Eb|4444440-1-1-1010------------1-1-1010---------------------0-|

 coda
Gb|--------------------------------|
Db|--------------------------------|
Ab|--------------------------------|
Eb|4444440-0h1-0h1-000-0h1-0h1-000-|
  development and support by
dmitry ivanov