rock
 
|tablatures   |lyrics   |discussion forums   |more tabs @ XGuitar.com

Nirvana tabs

Dumb (MTV Unplugged in N.Y.) guitar tab

Dumb

I've watched Kurt playing this and tabbed it by both ear and vision.I'm certain it's right.

Riff 1
E-----------------------------------
B---------------------------4-------
G-----------2-----4---------5-------
D---2-----2-2-----5-------5---------
A---2---0-----0---5--0-3-------0----
E-0---0---------3-------------------


Riff 2
E----0--0--0-0-0---------3--3--3-3-3---
B----0--0--0-0-0---------0--0--0-0-0---
G----x--x--x-x-x---------0--0--0-0-0---
D----2--2--2-2-2---------0--0--0-0-0---
A----2--2--2-2-2---------2--2--2-2-2---
E----0--0--0-0-0---------3--3--3-3-3---


Riff 3
E--x--x--x-x-x----x--x--x-x-x----
B--4--4--4-4-4----5--5--5-5-5----
G--4--4--4-4-4----5--5--5-5-5----
D--4--4--4-4-4----5--5--5-5-5----
A--2--2--2-2-2----3--3--3-3-3----
E--x--x--x-x-x----x--x--x-x-x----

Lyrics and Order

Riff 1
I'm not like them
But I can pretend
The sun is gone
But I have a light
The day is done
But I'm having fun

Riff 2
I think I'm dumb
or maybe just happy
Think I'm just happy

Riff 1
my heart is broke
But I have some glue
help me inhale
And mend it with you
We'll float around
And hang out on clouds
Then we'll come down

Riff 2
And I have a hangover...
Have a hangover

Riff 3
Skin the sun
Fall asleep
Wish away
The soul is cheap
Lesson learned
Wish me luck
Soothe the burn
Wake me up

Riff 1
I'm not like them
But I can pretend
The sun is gone
But I have a light
The day is done
But I'm having fun

  development and support by
dmitry ivanov