rock
 
|tablatures   |lyrics   |discussion forums   |more tabs @ XGuitar.com

Nirvana tabs

Dumb bass tab

Song: Dumb
Artist: Nirvana
Album: In Utero

Tab by Christian Brosche

Down 1/2 step tuning

Verse

Gb|------------------------------------|
Db|*----------------------------------*|
Ab|*-----------------------0-3-3-3----*|
Eb|---0--0-5-5-5--0-3-3-3--------------|

Chorus

Gb|------------------------|
Db|*----------------------*|
Ab|*----------------------*|
Eb|---0-0-0-0--3-3-3-3-----|

Bridge

Gb|------------------------|
Db|*----------------------*|
Ab|*--2-2-2-2--3-3-3-3----*|
Eb|------------------------|


E-mail any corrections, comments, etc. to
parranda@hotmail.com
__________________________________________________
  development and support by
dmitry ivanov