rock
 
|tablatures   |lyrics   |discussion forums   |more tabs @ XGuitar.com

Nirvana tabs

Drain You bass tab

bandname: Nirvana

songname: Drain You

tabtype: bass

tab: Heres a correct tab of Nirvana's "Drain You", alot of others are wrong.....

Tuning- Down 1 step   (high to low - F C G D)

~~ = let note ring

Intro - (guitar)


Verse - 

F|---------------------
C|---------------------
G|--------6-6-------4-4
D|--7-7-7-----4-4-4----


Pre-Chorus-

F|--------------
C|--------------
G|--------------
D|--2~~ 0~~ ----


Chorus-

F|----------------------------------
C|----------------------------------
G|--4-4-4-4-4-4-4-4-----------------
D|-------------------0-0-0-0-0-0-0-0


Post-Chorus-

F|-------------
C|-------------
G|--2~~ 0~~ ---
D|----------4~~


Bridge-

F|----------------------------------------------------
C|----------------------------------------------------
D|----------------------------------------------------
G|-4-4-4-4-4-4-4-4-4-4-4-4-4-4-4-4-4-4-4-4-4-4-4-4-4-4

(well maybe not that many but its just that note the whole time)

Any questions email me

SR300DX@hotmail.com 
my name is Bryan

  development and support by
dmitry ivanov