rock
 
|tablatures   |lyrics   |discussion forums   |more tabs @ XGuitar.com

Nirvana tabs

Come As You Are guitar tab



 Come as you are

 By Kurt Cobain

 Detune your guitar one hole step  (D, G, C, F, A, D)

                   

                   Riff A

 |--------------||-------------------------------------|--------------------||

 |--------------||o------------------------------------|-------------------o||

 |--------------||-------------------------------------|--------------------||

 |--------------||-------------------------------------|--------------------||

 |--------------||o-------0---------0------------------|-------2-----------o||

 |---0---0---1--||--2----------2----------2----2----1--|-0----------0---1---||

                                                                          X2

 w/riff A

 Come as you are

 as you were,

 as I want you to be,

 as a friend,

 as a friend,

 as an old enemy.

 Take your time,

 hurry up,

 the choice is yours,

 don't be late.



 w/ riff A  (1st time all, second 1st bar only)

 Take a rest

 as a friend

 as a trend

 as an old



                mem         -        o  - ri

 |----------------------0------0-----0----0-----|

 |----------------------0------0-----0----0-----|

 |----------------------1------1-----1----1-----|

 |----------------------2------2-----2----2-----|

 |---------2------------------------------------|

 |----0---------0-------------------------------|



  Pre-chorus

      -          a                       mem  -   o   -   ri  

 |------2-----------------------------------------------------|

 |o-----2------------------2---2---2---2------2---2---2---2--o|

 |------4------------------2---2---2---2------2---2---2---2---|

 |--4-------4----4---------2---2---2---2------2---2---2---2---| X2

 |o-4-------4----4---------0---0---0---0------0---0---0---0--o|

 |--2-------2----2--------------------------------------------|



 

 w/riff A

 Come doused in mud,

 soaked in bleach,

 as I want you to be,

 as a trend,

 as a friend, as an old



  Repeat the above bars, then



 Chorus.-      F#(244xx)  Bm(799xxx)or (x244xx)  Dadd9(x57755) 

  first a slide from F# to Bm

  

  Bm     Dadd9        Bm               Dadd9

  And I  swear that I don't have a gun.

              Bm         Dadd9

  No, I don't  have a gun

              Bm         Dadd9

  No, I don't  have a gun

 

  Repeat Riff A  and continue it through solo



  Solo.-

       /\/\/\   /\/\/\/\  /\/\/\/\             /\/\/\  /\/\

 |-----------|--------------------------------------------------------------|

 |-----------|o-------------------------------------------------------------|

 |----6------|-6----------9----------11\6------6------9------11\6-----------|

 |-----------|--------------------------------------------------------------|

 |-----------|o-------------------------------------------------------------|

 |-----------|--------------------------------------------------------------|

       

       /\/\/\/\  /\/\/\/\   /\/\  /\/\ /\/\        /\/\/\/\  /\/  /\

 |--------------------------------------------------------------------------|

 |-------------------------------------------------------------------------o|

 |----6---------9----------11---11---11---11-----11bf-------11--11---9--9\6-|

 |------------------------------------------------9bf-----------------------|

 |-------------------------------------------------------------------------o|

 |--------------------------------------------------------------------------|

                                                                         X4



   Repeat Pre-chorus, chorus, riff A and it ends like this.-



   ----0----------- 

   ----0-----------

   ----4-----------

   ----4-----------

   ----4-----------

   ----2-----------

  development and support by
dmitry ivanov