rock
 
|tablatures   |lyrics   |discussion forums   |more tabs @ XGuitar.com

Nirvana tabs

Breed guitar tab

Breed
By Kurt Cobain

Tune normally


Intro  & rhy. fig 1

w/heavy dist.

|---------------------------|   
|o-------------------------o|
|---------------------------|  X 10
|--4--4--4--4---/7----2-----|
|o-4--4--4--4---/7----2----o|
|--2--2--0--2---/5----0-----|

  

  

rhy.fig 2
------------------------------------------------
------------------------------------------------
-11--11--11--11----11--11--11--11---------------
-11--11--11--11----11--11--11--11---------------
--9---9---9---9-----9---9---9---9---------------
------------------------------------------------

------------------------------------------------
------------------------------------------------
-11--11--11--11----11--11--11--11---------------
-11--11--11--11----11--11--11--11---------------
--9---9---9---9-----9---9---9---9---------------
------------------------------------------------

                                  end of rhy.fig 2
  ------------------------------------------------
  ------------------------------------------------
  -11--11--11--11----11--11--11--11---------------
  -11--11--11--11----11--11--11--11---------------
  --9---9---9---9-----9---9---9---9---------------
  ------------------------------------------------
  
  
  fill  A
  ------------------------------------------------
  ----------------full----------------------------
  -11--11--11----/--------------------------------
  -11--11--11---9---------------------------------
  --9---9---9-------------------------------------
  ------------------------------------------------

  fill  B
  ------------------------------------------------
  ------------------------------------------------
  ------------------------------------------------
  -4---4---4---4---4---4---4----------------------
  -4---4---4---4---4---4---4----------------------
  -2---2---2---2---2---2---2----------------------

  w/rhy.fig 2
  I don't care,I don't care,I don't care,I don't care,I don't care,
  care if it's old.  (fill A)
  I don't mind,I don't mind,I don't mind,I don't mind,    (rhy.fig. 2)
  mind don't have a mind.  (fill A)
  Get away,get away,get away,get away,way     (rhy.fig. 2)
  way from your home.  (fill A) 
  I'm afraid,I'm afraid,I'm afraid,I'm afraid,afraid   (rhy.fig. 2)
  ghost.  (fill B)

  rhy.fig 3
 |-------------------------------------------------|
 |--3--3--3----------------------------------------|
 |--2--2--2---0--2---x--x---5--5--5---0---4--x--x--|
 |--0--0--0---0--2---x--x---5--5--5---0---4--x--x--|
 |---------------0---x--x---3--3--3---0---2--x--x--|
 |-------------------------------------------------|

  w/rhy.fig 3
  Even if you have... 
  even if you need... 
  I don't mean to stare...
  We don't have to breed.
  We can plant a house...
  We could build a tree...
  I don't even care...
  We could have all three.

  w/rhy.fig 2
  she said,she said,she said,she said,...(etc.)

  Guitar Solo
  
  Trem -------------------------------------------
  
  -/---/---/---/-----/---/---/---/----------------
  -/---/---/---/-----/---/---/---/----------------
  -11--11--11--11----11--11--11--11---------------
  ------------------------------------------------
  --9---9---9---9-----9---9---9---9---------------
  ------------------------------------------------

  --------------------------]
  
  ------------------------------------------------
  (12)-(12)-(12)-(12)---(12)----------------------
  -11---11---11---11-----11----10---8-------------   
  ------------------------------------------------
  --9----9----9----9------9-----------------------
  ------------------------------------------------

  Trem--------------------------------------------

  -/----/----/----/-----/----/----/----/----------
  -/----/----/----/-----/----/----/----/----------
  -14---14---14---14----14---14---14---14---------
  ------------------------------------------------
  -12---12---12---12----12---12---12---12---------
  ------------------------------------------------
 
  ----]

  --/---------------------------------------------
  --/---------------------------------------------
  --14------13---12---(12)\-----------------------
  ------------------------------------------------
  --12------11---10---(10)\-----------------------
  ------------------------------------------------

  Trem--------------------------------------------

  -/--------------------/-------------------------
  -/---(18)-------------/---(18)------------------
  -17---17--17--17--17--17---17--17--17--17-------
  ------------------------------------------------
  -15---15--15--15--15--15---15--15--15--15-------
  ------------------------------------------------
  
  Trem--------------------------------------------

  ---------------------------------/--------------
  --------(18)----(18)-------------/--------------
  -17--17--17--17--17--17--17--17--17-------------
  ------------------------------------------------
  -15--15--15--15--15--15--15--15--15-------------
  ------------------------------------------------
  
  Trem--------------------------------------------

  -------------------/---------------------/------
  -(18)--------------/---(18)--------------/------
  --17--17--17--17---17---17--17--17--17---17-----
  ------------------------------------------------
  --15--15--15--15---15---15--15--15--15---15-----
  ------------------------------------------------

  Trem---------------]

  ------------------------------------------------
  -(18)-------------------------------------------
  --17---17--17--17-----18--16--15--14\-----------
  ------------------------------------------------
  --15---15--15--15-----16--14--13--12\-----------
  ------------------------------------------------

  Trem--------------------------------------------

  --/----/----/----/----/----/----/----/----------
  --/----/----/----/----/----/----/----/----------
  -/19---19---19---19---19---19---19---19---------
  ------------------------------------------------
  -/17---17---17---17---17---17---17---17---------
  ------------------------------------------------
  
  Trem----------------------------------------]

  --/----/----/----/-----/----/----/----/---------
  --/----/----/----/-----/----/----/----/---------
  --20---20---21---21----22---22---22---22--------
  ------------------------------------------------
  --18---18---19---19----20---20---20---20--------
  ------------------------------------------------

  w/rhy.fig 3
  Even if you have... 
  even if you need... 
  I don't mean to stare...
  We don't have to breed.
  We can plant a house...
  We could build a tree...
  I don't even care...
  We could have all three.
  
  w/rhy.fig 2
  she said,she said,she said,she said,...(etc.)
  
    said
  ------------------------------------------------
  ------------------------------------------------
  ------------------------------------------------
  ---4--------------------------------------------
  ---4--------------------------------------------
  ---2--------------------------------------------
  development and support by
dmitry ivanov