rock
 
|tablatures   |lyrics   |discussion forums   |more tabs @ XGuitar.com

Nirvana tabs

Breed bass tab

Breed
By Nirvana
>From Nevermind
Transcribed by Madman Marshall (ninfan@usa1.com)


 Intro and Main Riff
(repeat 14 times)

||-----------------------------------------------||-----------------------
||*---------------------------------------------*||-----------------------
||*---------------------------------------------*||-----------------------
||-------2--2--0--2--5--0-----2--2--0--2--5--0---||-----------------------



 Chorus
(repeat 4 times)
||-----------------------------------------------||-----------------------
||*---------------------------------------------*||-----------------------
||*------5--5--5--5--0--0-----3--3--3--3--2--2--*||-----------------------
||-----------------------------------------------||-----------------------



 Main Riff again
(repeat 14 times)

||-----------------------------------------------||-----------------------
||*---------------------------------------------*||-----------------------
||*---------------------------------------------*||-----------------------
||-------2--2--0--2--5--0-----2--2--0--2--5--0---||-----------------------



 Chorus again
(repeat 4 times)
||-----------------------------------------------||-----------------------
||*---------------------------------------------*||-----------------------
||*------5--5--5--5--0--0-----3--3--3--3--2--2--*||-----------------------
||-----------------------------------------------||-----------------------



Repeat Main Riff and Chorus


Outro
(repeat 14 times)
||----------------------------------------------||------------------------
||*--------------------------------------------*||------------------------
||*--------------------------------------------*||------------------------
||------2--2--0--2--5--0-----2--2--0--2--5--0---||--2---------------------
  development and support by
dmitry ivanov