rock
 
|tablatures   |lyrics   |discussion forums   |more tabs @ XGuitar.com

Nirvana tabs

Big Long Now bass tab

Song: Big Long Now
Artist: Nirvana
Album: Incesticide
Tuning: Standard

G------------------------|
D------------------------|
A-------4------5-5--6--5-|
E-6-6------6-------------|

G------------------------|
D------------------------|
A------------------------|
E-7-7-7-6-6-6-5-5-4--3---|

G------------------------|
D------------------------|
A---------5-5-5-4--4-4-4-|
E-6-6-6------------------|
  development and support by
dmitry ivanov