rock
 
|tablatures   |lyrics   |discussion forums   |more tabs @ XGuitar.com

Nirvana tabs

Big Cheese bass tab

Nirvana
Big Cheese
    ----------

G-------------------------------|
D-------------------------------|
A---4-4-4-4-3-3-3-3-(or 3- 2)---|
E-------------------------------|
Big cheese...

G--------------------------------------|
D--------------------------------------|
A---4-4-4-4-4-4-4-4-0-2-0-3-4(x8)--0---|
E--------------------------------------|
Black is black...

During guitar solo:
G--------------------------------------------|
D---2-2-2--2-3-3-3--0--2-0-2-0-0-------------|
A----------------------------------------2---|
E--------------------------------------------|
  development and support by
dmitry ivanov