rock
 
|tablatures   |lyrics   |discussion forums   |more tabs @ XGuitar.com

Nirvana tabs

Been A Son bass tab

Nirvana
Been A Son

Verse riff
G|-----------------------------|
D|-----------------------------|
A|5--5-5-3-2-0-5--5-5-5-3-2-0--|
E|-----------------------------|

Chorus riff
G|------------------------------|
D|---5--3-3-3-0-2-0-2-----------|
A|--------------------3-3-2-0---|
E|3---------------------------4-|
  development and support by
dmitry ivanov