rock
 
|tablatures   |lyrics   |discussion forums   |more tabs @ XGuitar.com

Nirvana tabs

Bambi Slaughter bass tab

From: Jeremy 

Bambi Slaughter by Nirvana 
Album: Dressed for Success

    Verse
G-|-------------------------------------------------------------------|
D-|------------------3-3-3-3-2-2-2-2----------------------------------|
A-|----------3-3-3-3---------------------------------3-3-3-3-2-2-2-2--| repeat(4x)
E-|--5-5-5-5-------------------------0-0-0-0-3-3-3-3------------------|
                                                                              
    Chorus                                                           
G-|-------------------------------------------------------------------|
D-|-------------------------------------------------------------------|
A-|-------------1-1-------------1-1-----------------------------------| repeat(2x)
E-|-3-3-3-3-3-3-----2-2-2-2-2-2-----1-1-1-1-1-1-2-2-1-1-1-1-1-1-2-2---|
                                                                          
   Outro
G-|-----------------------------------|
D-|*-----------------3-3-3-3-2-2-2-2-*|
A-|*---------3-3-3-3-----------------*| repeat(5x)
E-|--5-5-5-5--------------------------|
  
  This song is just bass, but it sounds ok on guitar too I guess.

 
Submitted by: Jeremy, any questions or comments  e-mail me at Zertul3445@aol.com
  development and support by
dmitry ivanov