rock
 
|tablatures   |lyrics   |discussion forums   |more tabs @ XGuitar.com

Nirvana tabs

Aneurysm bass tab

Aneurism by Nirvana
===================
Submitted by Scott <CHIMPO@ix.netcom.com>

G---------------------------------------------------------------
D---------------------------------------------------------------
A-------2-2-2-2-3-3-3-3-0-0-0-0---------------------------------
E-2--2-2--------------------------------------------------------

G---------------------------------------------------------------
D---------------------------------------------------------------
A-2--2-2-x-2--2-2-x-2--2-2-x-5-5-5-5-5-5-5-5-5-5-5-5-5-5--------
E---------------------------------------------------------------

G---------------------------------------------------------------
D---------------------------------------------------------------
A----0-0-2-2-2-2-0-0-0-0----------------------------------------
E-2-2-----------------------------------------------------------

That's it. Just put it together and have fun.

CHIMPO was here!!!!!
  development and support by
dmitry ivanov