rock
 
|tablatures   |lyrics   |discussion forums   |more tabs @ XGuitar.com

Nirvana tabs

Aero Zeppelin bass tab

Song: Aero Zeppelin
Artist: Nirvana
Album: Incesticide
Tuning: Standard

G-------|
D-------|
A-------|
E--0--0-|

G---------------------------|
D---------------------------|
A--6-6-6--2-2-0-1-1-0-------|
E----------------------3-0--|

G---------------------------------------|
D---------------------------------------|
A-------------4-4-4-4-4--0--2-1--1-1--0-|
E--6-6-6-6-6----------------------------|

G-----------------|
D-----------------|
A--0-0------------|
E---------3-3-3-2-|
  development and support by
dmitry ivanov