rock
 
|tablatures   |lyrics   |discussion forums   |more tabs @ XGuitar.com

Neil_young tabs

War of Man bass tab

The bass in this song id hard to tab because its muffled,
but i think this is on the right track. please correct if you can fix it

Intro/Preverse: (around 0:08 and 0:16)
G|-------------------------|
D|-------------------------|
A|--0--5---------0--5------|
E|-------------------------|

Verse: (starts at 0:19) [listen very closely for timing]
G|------------------------------------------|
D|----------------7-------------------------|
A|--5-8-5-----5-8---5------5-8--1--3--5-8-5-|
E|------------------------------------------|

G|------------------------------------------|
D|----------------7-------------------------|
A|--5-8-5-----5-8---5------8-5---------1--3-|
E|------------------------------------------|

Prechorus: (even harder to hear than the verse)
G|----------------------------------------------------|
D|------------------------------------------------7---|
A|--5--5-5--5--5--5--5-8-5---5--5-5--5--5--5--5-8---5-| play twice
E|----------------------------------------------------|

Chorus:
G|-------------------------------------------------------|
D|-------------------------------------------------------|
A|--5--5--5--5--5--5--5--5--1-1-1-1-1-1-1-1--1--3--3--0--|
E|-------------------------------------------------------|

First Bridge:
G|------------------|
D|----7-------------|
A|--5---8----1-3-5--|
E|------------------|

Second Bridge:
G|-----------------------|
D|----7------------15----|
A|--5---8~~//12-12----16-|
E|-----------------------|

Last Chorus:
A|-5-5-5-5-5-5-5-5-| conmtinue to hit this note quietly until the song ends

Order:
Intro/Preverse
Verse
Prechorus
(Verse
Prechorus)
Chorus
Bridge 1
Chorus
Bridge 2

repeat above missing out whats in the parentheses

Intro/Preverse
Intro/Preverse (instead of verse)
Prechorus
Last Chorus (until fade)

there you have it. sorry its so long and confusing
  development and support by
dmitry ivanov