rock
 
|tablatures   |lyrics   |discussion forums   |more tabs @ XGuitar.com

Neil_young tabs

Rockin' in the Free World bass tab

ROCKIN' IN THE FREE WORLD
BY NEIL YOUNG
TABBED BY James Ryan neo@floodcity.net

INTRO
		
G|---------------------------------|
D|---------------------------------|
A|---------------------------------|
E|-0-0-0-0-0-0-0-0-0-0-0-0-0-0-0-0-|X4

VERSE
		
G|---------------------------------|
D|---------------------------------|
A|-----------------5-5-5--3-3-3-3--|
E|-0-0-0-0-0-0-0-0-----------------|X4
		
G|---------------------------------|
D|---------------------------------|
A|-----------------5-5-5-5-3-3-3-3-|
E|-0-0-0-0-0-0-0-0-----------------|X4

CHORUS
							
G|----------------------------------------------------------|
D|----------------------------------------------------------|
A|-----------------5-5-5-5-5-5-5-5-3-3-3-3-3-3-3-3--3-2-----|
E|-3-3-3-3-3-3-3-3--------------------------------------3-0-|X4

								
G|-----------------------------------------------------------------|
D|-----------------------------------------------------------------|
A|-----------------------------------------------------------------|
E|-5-5-5-5-5-5-5-5-5-5-5-5-5-5-5-5-5-5-5-5-5-5-5-5-5-5-5-5-5-5-5-5-|X1

SOLO

G|---------------------------------|
D|---------------------------------|
A|-----------------5-5-5-5-3-3-3-3-|
E|-0-0-0-0-0-0-0-0-----------------|

THAT'S ALL      ----PLEASE TAB MORE NEIL YOUNG----
  development and support by
dmitry ivanov