rock
 
|tablatures   |lyrics   |discussion forums   |more tabs @ XGuitar.com

Neil_young tabs

Powderfinger bass tab

POWDER FINGER
BY NEIL YOUNG
TABBED BY James Ryan
neo@floodcity.net

VERSE
G|-----------------------------------------------||---------------|
D|-----------------------------------------------||---------------|
A|-3-33-3-----3------3-33-3-33-3-----3------3-33-||-3-33-32-22-23-|
E|-------3-33--3-33-3-----------3-33--3-33-3-----||---------------|x4

G|--------------|
D|--------------|
A|-5-5-555555---|
E|--------------|

1ST CHORUS

G|----------------------|
D|--5-------------------|
A|----3-3-----3------3--|
E|-------3-33--3-33-3---|

ALL OTHER VERSES/SOLOS
                                                                x4
G|----------------------------------------------------|---------------|--------------|
D|----------------------------------------------------|---------------|--------------|
A|-3-33-3-33-3-----3------3-33-3-33-3-----3------3-33-|-3-33-32-22-23-|-5-5-555555---|
E|------------3-33--3-33-3-----------3-33--3-33-3-----|---------------|--------------|

ALL OTHER CHOURS

G|------------------------|
D|--5---------------------|
A|----0-2-3-----3------3--|
E|---------3-33--3-33-3---|



THAT'S ALL      ----PLEASE TAB MORE NEIL YOUNG----
  development and support by
dmitry ivanov