rock
 
|tablatures   |lyrics   |discussion forums   |more tabs @ XGuitar.com

Neil_young tabs

Old Man bass tab

OLD MAN
BY NEIL YOUNG
TABBED BY James Ryan
neo@floodcity.net

INTRO
	     	
G|------------|
D|----3-----3-|
A|-5-----5----|
E|------------| X3

VERSE

G|---------------------------|   |------------------|
D|---3-----------3-----------|   |---3--------------|
A|-5---3-------5---3---------|   |-5---3------------|
E|--------1-3--------3--1-3--|   |-------3--1-2-3---|x4


CHOURS

G|-----------------------|    |-------------------------|
D|-----------------------|    |-------------------------|
A|-5-5-------7-7------5--|    |-5-5-------5-7-7-----5---|
E|------5-5-------3--3---|x3  |-----5-5--7------3--3----|


OUTRO

G|-----------------------------------------------|
D|-----3-----3-----3-----------------------------|
A|--5-----5-----5-----3--------5--LET RING-------|
E|-----------------------1-3---------------------|

THAT'S ALL      ----PLEASE TAB MORE NEIL YOUNG----
  development and support by
dmitry ivanov