rock
 
|tablatures   |lyrics   |discussion forums   |more tabs @ XGuitar.com

Neil_young tabs

Hey Hey, My My (Into the Black) guitar tab

Hey, Hey, My, My

By Neil Young

Lead Guitar (Heavy Crunch)

Riff I
|------------------------------------------| \
|-1----------------------1-1-1---1-1-1-----| |
|-2----------------------2-2-2---2-2-2-----| | x2
|-2-----------0----------2-2-2---2-2-2-----| |
|-0~~~~-0-2-3---3-2---0--0-0-0-0-0-0-0-----| |
|-------------------3----------------------| /

Riff II
|-----------------------------------1-1-1--|
|-1--------------------------1-1-1--1-1-1--|
|-0-----------0~~-2-0--------2-2-2--2-2-2--|
|-2-------0-2---------2-2~~--2-2-2--3-3-3--|
|-3~~~~-3--------------------0-0-0---------|
|------------------------------------------|

Riff I
|------------------------------------------|
|------------------------1-1-1---1-1-1-----|
|------------------------2-2-2---2-2-2-----|
|-------------0----------2-2-2---2-2-2-----|
|-0~~~~-0-2-3---3-2---0--0-0-0-0-0-0-0-----|
|-------------------3----------------------|

Chords/Lyrics

Am      G        Am (Rhythm plays Riff I)
    Hey Hey My My

Am           G                 Am  (Rhythm plays Riff I)
    Rock and roll can never die

C                       G      Am              F (Rhythm Plays Riff II)
    There's more to the picture than meets the eye

Am      G        Am (Rhythm plays Riff I)
    Hey Hey My My

Solo I:

Riff I x2 and then...

Part II of Solo I (played quicker)

|------------------------------------------| x2
|--17b-17b-17b-17b-17b---------------------|
|--19b-19b-19b-19b-19b-17-19---------------|
|------------------------------------------|
|------------------------------------------|
|------------------------------------------|

|------------------------------------------|
|--17b-17b-17b-17b-17b-17b-17b-17b-17b~~---|
|--19b-19b-19b-19b-19b-19b-19b-19b-19b~~---|
|------------------------------------------|
|------------------------------------------|
|------------------------------------------|

Riff I

Verse

Solo II: (on theses bends (b) scratch the strings to
	           get that screach sound)

Part I

|--5-5-------------------------------------|
|--5-5----------------------------1~~------|
|------7b-7bbbbbbbbbb-5-7p5-------2~~------|
|---------------------------7-7~~-2~~------|
|------------------------------------------|
|------------------------------------------|

Part II

|------------------------------------------|
|---------------------------1~~------------|
|----5-7b-5------5---5------2~~------------|
|--7--------7-7-7-7-7-7-7-7-2~~------------|
|------------------------------------------|
|------------------------------------------|

Part II of Solo I

Continue with rest of song as you
improvise on the other solo's using
these solo's use the scale or A Minor penantonic.

This song is a wayyy fun jam song...

..NEIL YOUNG IS A GOD..

Questions? Comments?

Matt Jones
waveace222@aol.com
  development and support by
dmitry ivanov