rock
 
|tablatures   |lyrics   |discussion forums   |more tabs @ XGuitar.com

Neil_young tabs

Hey Hey, My My (Into the Black) bass tab

Artist:Neil Young & Crazy Horse
Song:Hey Hey, My My (into the black)

Tabbed By : Ben Ciceri
e-mail:from_here_and_on@hotmail.com

Tuning:Standard


Intro (w/ Bass Distortion)

G|-------------------------------------------------------------|
D|-------------------------------------------------------------|
A|0--0235--20--------------------------------------------------|  X3
E|-----------35--111-111---------------------------------------|

Verse (Clean)
G|-------------------------------------------------------------|
D|-------------------------------------------------------------|
A|0--0235--20--------------------------------------------------|  X3
E|-----------35--111-111---------------------------------------|

Chorus
G|-----00000222------------------------------------------------|
D|---02--------0233320-----------------------------------------|
A|333----------------------------------------------------------|  X1
E|-------------------------------------------------------------|


Just repeat the 3 verse 1 chorus pattern for the rest of the song. Except  after the
solo there are 6 1's in the verse instead of 3.
  development and support by
dmitry ivanov