rock
 
|tablatures   |lyrics   |discussion forums   |more tabs @ XGuitar.com

Neil_young tabs

Heart Of Gold bass tab

HEART OF GOLD
BY NEIL YOUNG
TABBED BY James Ryan
neo@floodcity.net

INTRO
G|---------------------------------|
D|---------------------------------|
A|-7-7-7-7-7-7-7-7-5-5-7-7-7-7-7-7-|
E|---------------------------------|x2

PLAY DURING HARMONICA
G|---------------------------------------------------------------------------------|
D|---------------------------------------------------------------------------------|
A|---2--3--5-5-------2--3--5-5-------2--3--5-5-----7-7-7-7-7-7-7-7-5-5-7-7-7-7-7-7-|
E|-0-----------3-3-0-----------3-3-0-----------3-3---------------------------------|

VERSE
G|-----------------------------------------------------------------|
D|-----------------------------------------------------------------|
A|---2--3--5-5-------2--3--5-5-------2-"3--5-5-----7-7-7-7-7-7-7-7-|
E|-0-----------3-3-0-----------3-3-0-----------3-3-----------------|

G|--------------------------------------------------------------------------------|
D|--------------------------------------------------------------------------------|
A|-----------------3-3-3--3-3-0---7-7-7-7-7-7-7-7------------------3-3-3--3-3-0---|
E|-3-3-3-3-3-3-3-3--------------3-----------------3-3-3-3-3-3-3-3---------------3-|
  development and support by
dmitry ivanov