rock
 
|tablatures   |lyrics   |discussion forums   |more tabs @ XGuitar.com

Neil_young tabs

Downtown bass tab

DOWNTOWN
BY NEIL YOUNG
TABBED BY James Ryan neo@floodcity.net

INTRO

G|---------------------------------------|
D|---------------5-4-3-------------------|
A|-7----5---------------------7--5-------|
E|-----------5-5---------------------5-5-|

VERSE/OUTRO

G|---------------------------------------|
D|---------------5-4-3-------------------|
A|-7----5---------------------7--5-------|
E|-----------5-5---------------------5-5-|

OR

G|---------------------------------------|
D|---------------------------------------|
A|-7----5---------------------7--5-------|
E|-----------5-5-5-5-5---------------5-5-|



THAT'S ALL      ----PLEASE TAB MORE NEIL YOUNG----
  development and support by
dmitry ivanov