rock
 
|tablatures   |lyrics   |discussion forums   |more tabs @ XGuitar.com

Neil_young tabs

Devil's Sidewalk guitar tab

Song: Devil's Sidewalk
Artist: Neil Young
Album: Greendale

This song is another simple one off of this album.  I figured most of this out from the DVD.

Riff 1				Riff 2

E|------------------------------|------------------------------|
B|-----------------3--x---1---3-|----------------3--x---1---3--|
G|-----------------2--x---2---4-|----------------2--x---2---4--|
D|----3-5-3--------0--x---3---5-|---5-5-3--------0--x---3---5--|
A|--5-------5-3-----------------|---------5-3------------------|
D|--------------0---------------|-------------0----------------|

Verse

E|--------------------------------|
B|-----3--x---1---3--pick---------|
G|-----2--x---2---4----these------|
D|-----0--x---3---5-------notes---|
A|--------------------------------|
D|--0-----------------------------|
  development and support by
dmitry ivanov