rock
 
|tablatures   |lyrics   |discussion forums   |more tabs @ XGuitar.com

Neil_young tabs

Country Home guitar tab

[2 versions]
this agian is 100% kinda rare song...


Intro: G C D  G C D  G

e --7-------|-----10-7-7-------x--|-8----------------|
B ---8-10-8-|-8-10------8-10-8-8--|--8-10-8-8--------|
G ----7-----|------------7-----9--|---9------11-11-9-|
D ----------|------------------10-|------------------|
A ----------|------------------10-|------------------|
E ----------|------------------x--|------------------|

                       slide from G to 787
                      /  \
e -----------------3-3-|-7-------|-----10-7-|-7-------8--|
B -----------------0-0-|--8-10-8-|-8-10-----|--8-10-8-8--|
G -9-9-7-7-7-9-7-0-0-0-|---7-----|----------|---7-----9--|
D --------------9--0-0-|---------|----------|---------10-|
A -----------------2-2-|---------|----------|---------10-|
E -----------------3-3-|---------|----------|---------x--|


e -8-------------------------------3-3-|-3
B --8-10-8-8--10--10---------------0-0-|-0
G ---9------11--11--11-7-7-7-9-7-0-0-0-|-0
D ------------------------------9--0-0-|-0
A ---------------------------------2-2-|-2
E ---------------------------------3-3-|-3


G
I don't like to go down to the flats
                          C
'Cause I can't park on a hill
                     D
Instead getting a rolling start
                   G
I have to pay the bill.


I guess I need that city life
It sure has lots of style
But pretty soon it wears me out
And I have to think to smile.

I'm thankful for my country home
It gives me peace of mind
Somewhere I can walk alone
And leave myself behind.

It's only someone else's potatoes
You pickin' someone else's patch
And if you go down there anyway
It very seldom lasts.

I found that out once long ago
And it sure got me confused
I still don't know which way to go
To lose those old spud blues.

I'm thankful for my country home
It gives me peace of mind
Somewhere I can walk alone
And leave myself behind.


easy song have fun wit it.

[2nd version]

COUNTRY HOME

Intro 1 by kimmel@cortex.sai.vtt.fi     (Jyrki Kimmel)

 C fingering + pinky used on B & e string 3rd fret riff
                            F (let ring ;-)           C
\--0--------------3-0---0-------0--1-------------------------0
\---1----3--1---3---------3-1-3----1--3-3-1-0--------------0-1
\----0-----------------------------2----------2-0-0--0-0-2---0
\----------------------------------3-------------------------2
\----------------------------------3-------------------------3
\----------------------------------1--------------------------

Intro 2 by jcarr@dbsoftware.com (John Carroll)

The intro is actually as easy as the rest of the song.  This riff is actually
played as the intro as well as other times during the song.

  G						       C
E-----------------------10-----------------------------8----
B-12-------10--------10----12-----------12-------10----8----
G----12-------12--12-----------------------12-------12-9----
D-------12------------------------------------12-------10---
A------------------------------------------------------10---
E------------------------------------------------------8----

              D
E-----------------------------------------------------------
B-13-12-----------------------------------------------------
G-------14-12-11-11--11-------------------------------------
D-----------------------------------------------------------
A-----------------------12-14-15-15-15-15-15-14-12-10-------
E-----------------------------------------------------------


Taken from the ChordPro by alb@ipvaim.unipv.it (Alberto Riva)

    G							          C	
I don't like to go down to the flats, 'cause I can't park on the hill
			D				 G
Instead of getting a rolling start, I have to pay the bill.
    G 			      			 C
I guess I need that city life, it sure has lots of style
		     D					  G
But pretty soon it wears me out, and I have to think to smile.

     G							 C
I'm thankful for my country home, it gives me peace of mind
		D				G
Somewhere I can walk alone, and leave myself behind.

solo

	G								C
It's only someone elses's potatoes if, you're picking someone else's patch
			  D			   G
And if you go down there anyway, it very seldom lasts.
    G		    					C
I found that out once long ago, and it sure got me confused
		          D				   G
I still don't know which way to go, to lose those old spud blues.

chorus

solo

chorus (x 2)

solo
  development and support by
dmitry ivanov