rock
 
|tablatures   |lyrics   |discussion forums   |more tabs @ XGuitar.com

Neil_young tabs

Cinnamon Girl bass tab

CINNAMON GIRL
BY NEIL YOUNG
TABBED BY James Ryan neo@floodcity.net

INTRO

G|--------------------------------------------------------------|
D|--------------------------------------------------------------|
A|--3H5-5-5-5-3H5-5-5-5-3-2-0-----3H5-5-5--3H5-5-5-3-2-0--------|
E|----------------------------1-3------------------------1-3----|

VERSE/OUTRO

G|-----------------------------------------------------------------|
D|-----------------------------------------------------------------|
A|-5-5-5-5-5-5-5-5-----------------3-3-3-3-3-3-3-3-----------------|
E|-----------------5-5-5-5-5-5-5-5-----------------3-3-3-3-3-3-3-3-|

G|----------------------|
D|----------------------|
A|------0-3-5-5-3-2-3-0-|
E|--1-3-----------------|

BRIDGE

G|-----------------------------------------------------------------|
D|-----------------------------------------------------------------|
A|-3-3-3-3-3-3-3-3-3-3-3-3-3-3-3-3---------------------------------|
E|---------------------------------3-3-3-3-3-3-3-3-5-5-5-5-5-5-5-5-|

END

G|--------------------------|
D|--------------------------|
A|-3-3-5-5-5-LET RING-------|
E|--------------------------|

THEN NO BASS

THAT'S ALL      ----PLEASE TAB MORE NEIL YOUNG----
  development and support by
dmitry ivanov