rock
 
|tablatures   |lyrics   |discussion forums   |more tabs @ XGuitar.com

Muse tabs

Uno guitar tab

BAND   : MUSE
ALBUM  : SHOWBIZ
SONG   : UNO
TABBED : Gabriel Romero 
www.musenet.fr.st

GUITAR TAB

STANDARD TUNING
eBGDAE

This song was really hard to figured out because of the distortions, that
makes feel confused of what kind of distortions they used in the intro, so
this tab is based a 100% in an acoustic song of uno that I have.

INTRO:

I found several ways to play the intro so choose the one that
sounds better

D---9X-9X-9---9X-9X-9---9X-9X-9---9X-9X-9/12\0-------
A---XX-XX-X---XX-XX-X---XX-XX-X---XX-XX-X/X-\X-------
E---7X-7X-7---7X-7X-7---7X-7X-7---7X-7X-7/10\0-------

A---7X-7X-7---7X-7X-7---7X-7X-7---7X-7X-7/10\0-------     FOR ME THIS ONE
E---7X-7X-7---7X-7X-7---7X-7X-7---7X-7X-7/10\0-------  <--IS THE BEST

A---9X-9X-9---9X-9X-9---9X-9X-9---9X-9X-9/12\0-------
E---7X-7X-7---7X-7X-7---7X-7X-7---7X-7X-7/10\0-------

or other way is like in the acoustic version:
Use palm muting in EAD strings, then scratch the strings from left to right
like if the strings are crying, is like this

e----------------------------------------------------
B----------------------------8-8-8-8-----------------
G--------------------5-5-5-5-7-7-7-7-----------------
D-XXXXXXXXXXXXXXXX---0-0-0-0-0-0-0-0-----------------
A-XXXXXXXXXXXXXXXX---0-0-0-0-------------------------
E-XXXXXXXXXXXXXXXX-----------------------------------
  |--------------|
   PLAY THIS AS
   NECESSARY

THEN:

B--8-7-7-8-7-7-8--8-7-7-8-7-7-8--8-7-7-8-7-7-8--8-7-7-8-7-7-8--
G--9-9-9-9-9-9-9--9-9-9-9-9-9-9--5-5-5-5-5-5-5--5-5-5-5-5-5-5--

B--8-7-7-8-7-7-8--8-7-7-8-7-7-8--8-7-7-8-7-7-8--8-7-7-8-7-7-8--
G--8-8-8-8-8-8-8--8-8-8-8-8-8-8--9-9-9-9-9-9-9--9-9-9-9-9-9-9--

B--7-7-7-7-7-7--
G--9-9-9-9-9-9--

NEXT FOUR PART NEEDS TREMOLO PICKING

B--11-10-10-11-10-10-11--11-10-10-11-10-10-11--11-10-10-11-10-10-11--
G--12-12-12-12-12-12-12--12-12-12-12-12-12-12---9--9--9--9--9--9--9--

B--11-10-10-11-10-10-11--11-10-10-11-10-10-11--11-10-10-11-10-10-11--
G---9--9--9--9--9--9--9--11-11-11-11-11-11-11--11-11-11-11-11-11-11--

G-0X-
D-0X-
A-0X-

VERSE:

-The chords above the lyrics are strummed slow and only once,
-and for acoustic version you need to strummed like you
-normally do with some palm mutings

           Em
This means nothing to me
               Am
'Cause you are nothing to me
             B
And it means nothing to me
              Em
That you blew this away

'Cause you could have been number one
If you only found the time
And you could have ruled the whole world
If you had the chance

CHORUS:

ALL WITH TREMOLO PICKING

B--8-8-8--7-7-7--7-7-7--8-8-8--  THIS FOUR CHORDS ARE THE CHORUS, PLAY EACH
G--9-9-9--5-5-5--8-8-8--9-9-9--  ONE AS NECESSARY

You could have been number one
And you could have ruled the whole world
And we could have had so much fun
But you blew it away

BRIDGE:

e-----------------------------------------------------------------0----
B-----------------------------------------------------------------0----
G-----------------------------------------------------------------0----
D-----------------------------------------------------------------2----
A--4--3--2-2---2--------------------4--3--2-2---2---------4--3-2--2----
E------------3----0h2-3-2-2--0-0@-------------3---0h2-3-0---------0----

VERSE 2:
             Em
You're still nothing to me
            Am
And this is nothing to me
              B
And you don't know what you've done
                    Em
But I'll give you a clue

You could have been number one            |   Here in this parte is heard 
some arpeggio
If you only had the chance                |   of piano, but you can do it 
with the same
And you could have ruled the whole world  |   chors in the guitar
If you had the time                       |

CHORUS:

ALL WITH TREMOLO PICKING

B--8-8-8--7-7-7--7-7-7--8-8-8--  THIS FOUR CHORDS ARE THE CHORUS, PLAY EACH
G--9-9-9--5-5-5--8-8-8--9-9-9--  ONE AS NECESSARY


You could have been number one
And you could have ruled the whole world
And we could have had so much fun
But you blew it away

You could have been number one
And you could have ruled the whole world
And we could have had so much fun
But you blew it away

OUTRO:


NEXT FOUR PART NEEDS TREMOLO PICKING

B--11-10-10-11-10-10-11--11-10-10-11-10-10-11--11-10-10-11-10-10-11--
G--12-12-12-12-12-12-12--12-12-12-12-12-12-12---9--9--9--9--9--9--9--

B--11-10-10-11-10-10-11--11-10-10-11-10-10-11--11-10-10-11-10-10-11--
G---9--9--9--9--9--9--9--11-11-11-11-11-11-11--11-11-11-11-11-11-11--

Any comments suggestion etc etc are recived
Gabriel Romero 


-----


Uno
Artist : Muse
Album : Showbiz
www.musenet.fr.st

Ceci est un version bricolée à partir de la version de l'album et différentes versions " live ".

Pour l'intro : parcourir le manche de haut en bas avec un bottleneck et suivre le rythme lorsque la batterie arrive.

Riff d'intro :
          à jouer en boucle                  puis :                               et retour a la première boucle    
--------------------------------------------|-----------------------------------------------------------------
--------8---7--7---8---7--7---8--7-----|------8-7-7-8-7-7-8--7---------------------------------------
--------9---9--9---9---9--9---9--9---°-|------8-8-8-8-8-8-8--8------------------------------------------------------------------------------------------°-|----------------------------------------------------------------------------------------------------------------------|----------------------------------------------------------------------------------------------------------------------|-------------------------------------------------------------------------

---------------------------------------------------------------------------------------------------------------------- 
-11--10---11--10------11---11--10------11--10------11--10-----11--10---11--11--10-----11-10---11- 
---------9------------9-------------------9-------------9-----------8------------8----------------9----------9---- 
---------------------------------------------------------------------------------------------------------------------- 
----------------------------------------------------------------------------------------------------------------------
----------------------------------------------------------------------------------------------------------------------

Em

couplet :
Em                                        Am :                       B7 :
----0--------------------------------0-----------------------2---------------- 
----0--------------------------------1-----------------------0----------------
----0--------------------------------2-----------------------2----------------
----2--------------------------------2-----------------------1----------------
----2--------------------------------0-----------------------2---------------- 
----0--------------------------------------------------------------------------

Voici une partie " live " que l'on peut jouer a partir de " you could have been number one... " :
(à jouer en contre-temps)

-------12--12-------12-12--------12--12------12--12-----------14---14---------14--14---------12---------
-------12--12-------12-12--------13--13------13--13-----------12---12---------12--12---------12--------
-------12--12-------12-12--------14--14------14--14-----------14---14---------14--14---------12--------- 
---------------------------------------------------------------------------------------------------------------------
---------------------------------------------------------------------------------------------------------------------- 
----------------------------------------------------------------------------------------------------------------------




Refrain :
(tiré de  live , à jouer en aller-retour très rapidement)

" you could have been..........and we could have had...............but you blew it away.... 
------------------------------------------------------------------------------------------------------- 
------------------------------------------------------------------------------------------------------- 
------9-----------------------------------------------------8------------5-----------------------4--- 
------------------------------------------------------------------------------------------------------- 
------7-----------------------------------------------------6------------3-----------------------2--- 
------------------------------------------------------------------------------------------------------- 


Solo :

------------------------------------------------------------------------------------------------------- 
------------------------------------------------------------------------------------------------------ 
-------------------------------------------------------------------------------------------------------- 
-------------------------------------------------------------------------------------------------------- 
-----4--3--2--2-----2-----------------------------------4-3-2-2-------2--------------4--3--2-----
-------------------3--------0--2---3---2--2---0---0---------------2--------0--2--3----------------

puis retour aux accords du couplet, puis riffs d'intro pour la fin....
  development and support by
dmitry ivanov