rock
 
|tablatures   |lyrics   |discussion forums   |more tabs @ XGuitar.com

Muse tabs

The Gallery guitar tab

MUSE
THE GALLERY


Standard Tuning

Intro/Verse:

|-----------10--------------|
|--10-12-13----13-12-10-----|
|-----------------------12--|
|---------------------------|
|---------------------------|
|---------------------------|

Then Change To:

|--5--7--8--10--8--7--5-----|
|------------------------8--|
|---------------------------|
|---------------------------|
|---------------------------|
|---------------------------|

This is the only guitar part.

|--x--|--0--|--2--|--3--|
|--0--|--1--|--3--|--3--|
|--1--|--0--|--2--|--0--|
|--2--|--2--|--0--|--0--|
|--2--|--3--|--x--|--x--|
|--0--|--x--|--x--|--3--|
  development and support by
dmitry ivanov