rock
 
|tablatures   |lyrics   |discussion forums   |more tabs @ XGuitar.com

Muse tabs

Sunburn guitar tab

Author/Artist: MUSE
Title: Sunburn
Album: Showbiz
Transcribed by: remy.lebbos@euronet.be

---------0---------------0---------------0---------------0--------------------
---0-------0---0---1-------1---1---1-------1---1---1-------1---1--------------
-----0-------0-------2-------2-------0-------0-------2-------2----------------
-------0---------------2---------------2---------------2----------------------
-----------------0---------------3---------------0----------------------------
-0----------------------------------------------------------------------------

---------0---------------0---------------0---------------0--------------------
---0-------0---0---1-------1---1---1-------1---1---1-------1---1--------------
-----0-------0-------2-------2-------0-------0-------2-------2----------------
-------0---------------2---------------2---------------2----------------------
-----------------0---------------3---------------0----------------------------
-0----------------------------------------------------------------------------
                                                                              
---------0---------------0---------------0---------------0--------------------
---0-------0---0---1-------1---1---1-------1---1---1-------1---1--------------
-----0-------0-------2-------2-------0-------0-------2-------2----------------
-------0---------------2---------------2---------------2----------------------
-----------------0---------------3---------------0----------------------------
-0----------------------------------------------------------------------------

---------0---------------0---------------0---------------0--------------------
---0-------0---0---1-------1---1---1-------1---1---1-------1---1--------------
-----0-------0-------2-------2-------0-------0-------2-------2----------------
-------0---------------2---------------2---------------2----------------------
-----------------0---------------3---------------0----------------------------
-0----------------------------------------------------------------------------

---------0---------------0---------------0---------------0--------------------
---0-------0---0---1-------1---1---1-------1---1---1-------1---1--------------
-----0-------0-------2-------2-------0-------0-------2-------2----------------
-------0---------------2---------------2---------------2----------------------
-----------------0---------------3---------------0----------------------------
-0----------------------------------------------------------------------------

---------0---------------0---------------0---------------0--------------------
---0-------0---0---1-------1---1---1-------1---1---1-------1---1--------------
-----0-------0-------2-------2-------0-------0-------2-------2----------------
-------0---------------2---------------2---------------2----------------------
-----------------0---------------3---------------0----------------------------
-0----------------------------------------------------------------------------

---------0---------------0---------------0---------------0--------------------
---0-------0---0---1-------1---1---1-------1---1---1-------1---1--------------
-----0-------0-------2-------2-------0-------0-------2-------2----------------
-------0---------------2---------------2---------------2----------------------
-----------------0---------------3---------------0----------------------------
-0----------------------------------------------------------------------------

---------0---------------0---------------0---------------0--------------------
---0-------0---0---1-------1---1---1-------1---1---1-------1---1--------------
-----0-------0-------2-------2-------0-------0-------2-------2----------------
-------0---------------2---------------2---------------2----------------------
-----------------0---------------3---------------0----------------------------
-0----------------------------------------------------------------------------

---------0---------------0---------------0---------------0--------------------
---0-------0---0---1-------1---1---1-------1---1---1-------1---1--------------
-----0-------0-------2-------2-------0-------0-------2-------2----------------
-------0---------------2---------------2---------------2----------------------
-----------------0---------------3---------------0----------------------------
-0----------------------------------------------------------------------------

---------0---------------0---------------0---------------0--------------------
---0-------0---0---1-------1---1---1-------1---1---1-------1---1--------------
-----0-------0-------2-------2-------0-------0-------2-------2----------------
-------0---------------2---------------2---------------2----------------------
-----------------0---------------3---------------0----------------------------
-0----------------------------------------------------------------------------

---------0---------------0---------------0---------------0--------------------
---0-------0---0---1-------1---1---1-------1---1---1-------1---1--------------
-----0-------0-------2-------2-------0-------0-------2-------2----------------
-------0---------------2---------------2---------------2----------------------
-----------------0---------------3---------------0----------------------------
-0----------------------------------------------------------------------------

---------0---------------0---------------0---------------0--------------------
---0-------0---0---1-------1---1---1-------1---1---1-------1---1--------------
-----0-------0-------2-------2-------0-------0-------2-------2----------------
-------0---------------2---------------2---------------2----------------------
-----------------0---------------3---------------0----------------------------
-0----------------------------------------------------------------------------

She burns.....

-0-0-0-0-0-0-0-0--0-0-0-0-0-0-0-0--0-0-0-0-0-0-0-0--0-0-0-0-0-0-0-0-----------
-1-1-1-1-1-1-1-1--0-0-0-0-0-0-0-0--1-1-1-1-1-1-1-1--0-0-0-0-0-0-0-0-----------
-2-2-2-2-2-2-2-2--0-0-0-0-0-0-0-0--2-2-2-2-2-2-2-2--0-0-0-0-0-0-0-0-----------
-2-2-2-2-2-2-2-2--2-2-2-2-2-2-2-2--2-2-2-2-2-2-2-2--2-2-2-2-2-2-2-2-----------
-0-0-0-0-0-0-0-0--2-2-2-2-2-2-2-2--0-0-0-0-0-0-0-0--2-2-2-2-2-2-2-2-----------
------------------0-0-0-0-0-0-0-0-------------------0-0-0-0-0-0-0-0-----------


-0-0-0-0-0-0-0-0--0-0-0-0-0-0-0-0--0-0-0-0-0-0-0-0--0-0-0-0-0-0-0-0-----------
-1-1-1-1-1-1-1-1--0-0-0-0-0-0-0-0--1-1-1-1-1-1-1-1--0-0-0-0-0-0-0-0-----------
-2-2-2-2-2-2-2-2--0-0-0-0-0-0-0-0--2-2-2-2-2-2-2-2--0-0-0-0-0-0-0-0-----------
-2-2-2-2-2-2-2-2--2-2-2-2-2-2-2-2--2-2-2-2-2-2-2-2--2-2-2-2-2-2-2-2-----------
-0-0-0-0-0-0-0-0--2-2-2-2-2-2-2-2--0-0-0-0-0-0-0-0--2-2-2-2-2-2-2-2-----------
------------------0-0-0-0-0-0-0-0-------------------0-0-0-0-0-0-0-0-----------

-0-0-0-0-0-0-0-0--0-0-0-0-0-0-0-0--0-0-0-0-0-0-0-0--0-0-0-0-0-0-0-0-----------
-1-1-1-1-1-1-1-1--0-0-0-0-0-0-0-0--1-1-1-1-1-1-1-1--0-0-0-0-0-0-0-0-----------
-2-2-2-2-2-2-2-2--0-0-0-0-0-0-0-0--2-2-2-2-2-2-2-2--0-0-0-0-0-0-0-0-----------
-2-2-2-2-2-2-2-2--2-2-2-2-2-2-2-2--2-2-2-2-2-2-2-2--2-2-2-2-2-2-2-2-----------
-0-0-0-0-0-0-0-0--2-2-2-2-2-2-2-2--0-0-0-0-0-0-0-0--2-2-2-2-2-2-2-2-----------
------------------0-0-0-0-0-0-0-0-------------------0-0-0-0-0-0-0-0-----------

-0-0-0-0-0-0-0-0--0-0-0-0-0-0-0-0--0-0-0-0-0-0-0-0--0-0-0-0-0-0-0-0-----------
-1-1-1-1-1-1-1-1--0-0-0-0-0-0-0-0--1-1-1-1-1-1-1-1--0-0-0-0-0-0-0-0-----------
-2-2-2-2-2-2-2-2--0-0-0-0-0-0-0-0--2-2-2-2-2-2-2-2--0-0-0-0-0-0-0-0-----------
-2-2-2-2-2-2-2-2--2-2-2-2-2-2-2-2--2-2-2-2-2-2-2-2--2-2-2-2-2-2-2-2-----------
-0-0-0-0-0-0-0-0--2-2-2-2-2-2-2-2--0-0-0-0-0-0-0-0--2-2-2-2-2-2-2-2-----------
------------------0-0-0-0-0-0-0-0-------------------0-0-0-0-0-0-0-0-----------    

                                                                    ------------------------------------------------------------------------------
-------------------15-16-17-16-15-----------------------------------15-16-----
-15-16-15-14-15-16----------------16-15-14-15-16--15-16-15-14-15-16-----------
------------------------------------------------------------------------------
------------------------------------------------------------------------------
------------------------------------------------------------------------------
                                                                              

------------------------------------------------------------------------------
-17-16-15-----------------------------------15-16-17-16-15--------------------
----------16-15-14-15-16--15-16-15-14-15-16----------------16-15-14-15-16-----
------------------------------------------------------------------------------
------------------------------------------------------------------------------
------------------------------------------------------------------------------
                                                                              

------------------------------------------------------------------------------
-15-16-17-16-15----------------------------15-16-17---------------------------
----------------16-15-14-15-16-15-14-15-16------------------------------------
------------------------------------------------------------------------------
------------------------------------------------------------------------------
------------------------------------------------------------------------------

---------0---------------0---------------0---------------0--------------------
---0-------0---0---1-------1---1---1-------1---1---1-------1---1--------------
-----0-------0-------2-------2-------0-------0-------2-------2----------------
-------0---------------2---------------2---------------2----------------------
-----------------0---------------3---------------0----------------------------
-0----------------------------------------------------------------------------

---------0---------------0---------------0---------------0--------------------
---0-------0---0---1-------1---1---1-------1---1---1-------1---1--------------
-----0-------0-------2-------2-------0-------0-------2-------2----------------
-------0---------------2---------------2---------------2----------------------
-----------------0---------------3---------------0----------------------------
-0----------------------------------------------------------------------------

---------0---------------0---------------0---------------0--------------------
---0-------0---0---1-------1---1---1-------1---1---1-------1---1--------------
-----0-------0-------2-------2-------0-------0-------2-------2----------------
-------0---------------2---------------2---------------2----------------------
-----------------0---------------3---------------0----------------------------
-0----------------------------------------------------------------------------

---------0---------------0---------------0---------------0--------------------
---0-------0---0---1-------1---1---1-------1---1---1-------1---1--------------
-----0-------0-------2-------2-------0-------0-------2-------2----------------
-------0---------------2---------------2---------------2----------------------
-----------------0---------------3---------------0----------------------------
-0----------------------------------------------------------------------------

                                                                              
She burns.....

-0-0-0-0-0-0-0-0--0-0-0-0-0-0-0-0--0-0-0-0-0-0-0-0--0-0-0-0-0-0-0-0-----------
-1-1-1-1-1-1-1-1--0-0-0-0-0-0-0-0--1-1-1-1-1-1-1-1--0-0-0-0-0-0-0-0-----------
-2-2-2-2-2-2-2-2--0-0-0-0-0-0-0-0--2-2-2-2-2-2-2-2--0-0-0-0-0-0-0-0-----------
-2-2-2-2-2-2-2-2--2-2-2-2-2-2-2-2--2-2-2-2-2-2-2-2--2-2-2-2-2-2-2-2-----------
-0-0-0-0-0-0-0-0--2-2-2-2-2-2-2-2--0-0-0-0-0-0-0-0--2-2-2-2-2-2-2-2-----------
------------------0-0-0-0-0-0-0-0-------------------0-0-0-0-0-0-0-0-----------


-0-0-0-0-0-0-0-0--0-0-0-0-0-0-0-0--0-0-0-0-0-0-0-0--0-0-0-0-0-0-0-0-----------
-1-1-1-1-1-1-1-1--0-0-0-0-0-0-0-0--1-1-1-1-1-1-1-1--0-0-0-0-0-0-0-0-----------
-2-2-2-2-2-2-2-2--0-0-0-0-0-0-0-0--2-2-2-2-2-2-2-2--0-0-0-0-0-0-0-0-----------
-2-2-2-2-2-2-2-2--2-2-2-2-2-2-2-2--2-2-2-2-2-2-2-2--2-2-2-2-2-2-2-2-----------
-0-0-0-0-0-0-0-0--2-2-2-2-2-2-2-2--0-0-0-0-0-0-0-0--2-2-2-2-2-2-2-2-----------
------------------0-0-0-0-0-0-0-0-------------------0-0-0-0-0-0-0-0-----------

-0-0-0-0-0-0-0-0--0-0-0-0-0-0-0-0--0-0-0-0-0-0-0-0--0-0-0-0-0-0-0-0-----------
-1-1-1-1-1-1-1-1--0-0-0-0-0-0-0-0--1-1-1-1-1-1-1-1--0-0-0-0-0-0-0-0-----------
-2-2-2-2-2-2-2-2--0-0-0-0-0-0-0-0--2-2-2-2-2-2-2-2--0-0-0-0-0-0-0-0-----------
-2-2-2-2-2-2-2-2--2-2-2-2-2-2-2-2--2-2-2-2-2-2-2-2--2-2-2-2-2-2-2-2-----------
-0-0-0-0-0-0-0-0--2-2-2-2-2-2-2-2--0-0-0-0-0-0-0-0--2-2-2-2-2-2-2-2-----------
------------------0-0-0-0-0-0-0-0-------------------0-0-0-0-0-0-0-0-----------

-0-0-0-0-0-0-0-0--0-0-0-0-0-0-0-0--0-0-0-0-0-0-0-0--0-0-0-0-0-0-0-0-----------
-1-1-1-1-1-1-1-1--0-0-0-0-0-0-0-0--1-1-1-1-1-1-1-1--0-0-0-0-0-0-0-0-----------
-2-2-2-2-2-2-2-2--0-0-0-0-0-0-0-0--2-2-2-2-2-2-2-2--0-0-0-0-0-0-0-0-----------
-2-2-2-2-2-2-2-2--2-2-2-2-2-2-2-2--2-2-2-2-2-2-2-2--2-2-2-2-2-2-2-2-----------
-0-0-0-0-0-0-0-0--2-2-2-2-2-2-2-2--0-0-0-0-0-0-0-0--2-2-2-2-2-2-2-2-----------
------------------0-0-0-0-0-0-0-0-------------------0-0-0-0-0-0-0-0-----------    

------------------------------------------------------------------------------
------------------------------------------------------------------------------
------------------------------------------------------------------------------
-999999999/101010///////////////////////////////21----------------------------
------------------------------------------------------------------------------
------------------------------------------------------------------------------
                                                                              

-12-12-12-12-12-12-12-12-12-12-12-12-12-12-12-12-12-12-12-12-12-12-12-12-15---
------------------------------------------------------------------------------
------------------------------------------------------------------------------
------------------------------------------------------------------------------
------------------------------------------------------------------------------
------------------------------------------------------------------------------
                                                                              

-15-15-15-14-14-14-14-14-14-14-14-12-12-12-12-11-11-11-11-11-11-11-11--8-8-8-8
------------------------------------------------------------------------------
------------------------------------------------------------------------------
------------------------------------------------------------------------------
------------------------------------------------------------------------------
------------------------------------------------------------------------------


-7-7-7-7----------------------------------------------------------------------
------------------------------------------------------------------------------
------------------------------------------------------------------------------
------------------------------------------------------------------------------
------------------------------------------------------------------------------
------------------------------------------------------------------------------
                                                                              
-12-12-12-12-12-12-12-12-12-12-12-12-12-12-12-12-12-12-12-12-12-12-12-12-15---
------------------------------------------------------------------------------
------------------------------------------------------------------------------
------------------------------------------------------------------------------
------------------------------------------------------------------------------
------------------------------------------------------------------------------
                                                                              

-15-15-15-14-14-14-14-14-14-14-14-12-12-12-12-11-11-11-11-11-11-11-11--8-8-8-8
------------------------------------------------------------------------------
------------------------------------------------------------------------------
------------------------------------------------------------------------------
------------------------------------------------------------------------------
------------------------------------------------------------------------------


-7-7-7-7----------------------------------------------------------------------
------------------------------------------------------------------------------
------------------------------------------------------------------------------
------------------------------------------------------------------------------
------------------------------------------------------------------------------
------------------------------------------------------------------------------
                                                                              

-0-0-0-0-0-0-0-0--0-0-0-0-0-0-0-0--0-0-0-0-0-0-0-0--0-0-0-0-0-0-0-0-----------
-1-1-1-1-1-1-1-1--0-0-0-0-0-0-0-0--1-1-1-1-1-1-1-1--0-0-0-0-0-0-0-0-----------
-2-2-2-2-2-2-2-2--0-0-0-0-0-0-0-0--2-2-2-2-2-2-2-2--0-0-0-0-0-0-0-0-----------
-2-2-2-2-2-2-2-2--2-2-2-2-2-2-2-2--2-2-2-2-2-2-2-2--2-2-2-2-2-2-2-2-----------
-0-0-0-0-0-0-0-0--2-2-2-2-2-2-2-2--0-0-0-0-0-0-0-0--2-2-2-2-2-2-2-2-----------
------------------0-0-0-0-0-0-0-0-------------------0-0-0-0-0-0-0-0-----------


-0-0-0-0-0-0-0-0--0-0-0-0-0-0-0-0--0-0-0-0-0-0-0-0--0-0-0-0-0-0-0-0-----------
-1-1-1-1-1-1-1-1--0-0-0-0-0-0-0-0--1-1-1-1-1-1-1-1--0-0-0-0-0-0-0-0-----------
-2-2-2-2-2-2-2-2--0-0-0-0-0-0-0-0--2-2-2-2-2-2-2-2--0-0-0-0-0-0-0-0-----------
-2-2-2-2-2-2-2-2--2-2-2-2-2-2-2-2--2-2-2-2-2-2-2-2--2-2-2-2-2-2-2-2-----------
-0-0-0-0-0-0-0-0--2-2-2-2-2-2-2-2--0-0-0-0-0-0-0-0--2-2-2-2-2-2-2-2-----------
------------------0-0-0-0-0-0-0-0-------------------0-0-0-0-0-0-0-0-----------

-0-0-0-0-0-0-0-0--0-0-0-0-0-0-0-0--0-0-0-0-0-0-0-0--0-0-0-0-0-0-0-0-----------
-1-1-1-1-1-1-1-1--0-0-0-0-0-0-0-0--1-1-1-1-1-1-1-1--0-0-0-0-0-0-0-0-----------
-2-2-2-2-2-2-2-2--0-0-0-0-0-0-0-0--2-2-2-2-2-2-2-2--0-0-0-0-0-0-0-0-----------
-2-2-2-2-2-2-2-2--2-2-2-2-2-2-2-2--2-2-2-2-2-2-2-2--2-2-2-2-2-2-2-2-----------
-0-0-0-0-0-0-0-0--2-2-2-2-2-2-2-2--0-0-0-0-0-0-0-0--2-2-2-2-2-2-2-2-----------
------------------0-0-0-0-0-0-0-0-------------------0-0-0-0-0-0-0-0-----------

-0-0-0-0-0-0-0-0--0-0-0-0-0-0-0-0--0-0-0-0-0-0-0-0--0-0-0-0-0-0-0-0-----------
-1-1-1-1-1-1-1-1--0-0-0-0-0-0-0-0--1-1-1-1-1-1-1-1--0-0-0-0-0-0-0-0-----------
-2-2-2-2-2-2-2-2--0-0-0-0-0-0-0-0--2-2-2-2-2-2-2-2--0-0-0-0-0-0-0-0-----------
-2-2-2-2-2-2-2-2--2-2-2-2-2-2-2-2--2-2-2-2-2-2-2-2--2-2-2-2-2-2-2-2-----------
-0-0-0-0-0-0-0-0--2-2-2-2-2-2-2-2--0-0-0-0-0-0-0-0--2-2-2-2-2-2-2-2-----------
------------------0-0-0-0-0-0-0-0-------------------0-0-0-0-0-0-0-0-----------    


-0-0-0-0-0-0-0-0--0-0-0-0-0-0-0-0--0-0-0-0-0-0-0-0--0-0-0-0-0-0-0-0-----------
-1-1-1-1-1-1-1-1--0-0-0-0-0-0-0-0--1-1-1-1-1-1-1-1--0-0-0-0-0-0-0-0-----------
-2-2-2-2-2-2-2-2--0-0-0-0-0-0-0-0--2-2-2-2-2-2-2-2--0-0-0-0-0-0-0-0-----------
-2-2-2-2-2-2-2-2--2-2-2-2-2-2-2-2--2-2-2-2-2-2-2-2--2-2-2-2-2-2-2-2-----------
-0-0-0-0-0-0-0-0--2-2-2-2-2-2-2-2--0-0-0-0-0-0-0-0--2-2-2-2-2-2-2-2-----------
------------------0-0-0-0-0-0-0-0-------------------0-0-0-0-0-0-0-0-----------


-0-0-0-0-0-0-0-0--0-0-0-0-0-0-0-0--0-0-0-0-0-0-0-0--0-0-0-0-0-0-0-0-----------
-1-1-1-1-1-1-1-1--0-0-0-0-0-0-0-0--1-1-1-1-1-1-1-1--0-0-0-0-0-0-0-0-----------
-2-2-2-2-2-2-2-2--0-0-0-0-0-0-0-0--2-2-2-2-2-2-2-2--0-0-0-0-0-0-0-0-----------
-2-2-2-2-2-2-2-2--2-2-2-2-2-2-2-2--2-2-2-2-2-2-2-2--2-2-2-2-2-2-2-2-----------
-0-0-0-0-0-0-0-0--2-2-2-2-2-2-2-2--0-0-0-0-0-0-0-0--2-2-2-2-2-2-2-2-----------
------------------0-0-0-0-0-0-0-0-------------------0-0-0-0-0-0-0-0-----------

-0-0-0-0-0-0-0-0--0-0-0-0-0-0-0-0--0-0-0-0-0-0-0-0--0-0-0-0-0-0-0-0-----------
-1-1-1-1-1-1-1-1--0-0-0-0-0-0-0-0--1-1-1-1-1-1-1-1--0-0-0-0-0-0-0-0-----------
-2-2-2-2-2-2-2-2--0-0-0-0-0-0-0-0--2-2-2-2-2-2-2-2--0-0-0-0-0-0-0-0-----------
-2-2-2-2-2-2-2-2--2-2-2-2-2-2-2-2--2-2-2-2-2-2-2-2--2-2-2-2-2-2-2-2-----------
-0-0-0-0-0-0-0-0--2-2-2-2-2-2-2-2--0-0-0-0-0-0-0-0--2-2-2-2-2-2-2-2-----------
------------------0-0-0-0-0-0-0-0-------------------0-0-0-0-0-0-0-0-----------

-0-0-0-0-0-0-0-0--0-0-0-0-0-0-0-0--0-0-0-0-0-0-0-0--0-0-0-0-0-0-0-0-----------
-1-1-1-1-1-1-1-1--0-0-0-0-0-0-0-0--1-1-1-1-1-1-1-1--0-0-0-0-0-0-0-0-----------
-2-2-2-2-2-2-2-2--0-0-0-0-0-0-0-0--2-2-2-2-2-2-2-2--0-0-0-0-0-0-0-0-----------
-2-2-2-2-2-2-2-2--2-2-2-2-2-2-2-2--2-2-2-2-2-2-2-2--2-2-2-2-2-2-2-2-----------
-0-0-0-0-0-0-0-0--2-2-2-2-2-2-2-2--0-0-0-0-0-0-0-0--2-2-2-2-2-2-2-2-----------
------------------0-0-0-0-0-0-0-0-------------------0-0-0-0-0-0-0-0----------- 

-----7---8-7-------7---8-7-------7---8-7-------7---8-7-------7---8-7----------
---8---8-----8---8---8-----8---8---8-----8---8---8-----8---9---9-----9----9---
-0-------------0-------------0-------------0-------------0--------------0-----
------------------------------------------------------------------------------
------------------------------------------------------------------------------
------------------------------------------------------------------------------
                                                                              

-7---8-7-------7---8-7-------7---8-7------7---8-7-----------------------------
---9-----9---9---9-----9---9---9-----9--9---9-----9---------------------------
-----------0-------------0------------0---------------------------------------
------------------------------------------------------------------------------
------------------------------------------------------------------------------
------------------------------------------------------------------------------
                                                                              
-----7---8-7-------7---8-7-------7---8-7-------7---8-7-------7---8-7----------
---8---8-----8---8---8-----8---8---8-----8---8---8-----8---9---9-----9----9---
-0-------------0-------------0-------------0-------------0--------------0-----
------------------------------------------------------------------------------
------------------------------------------------------------------------------
------------------------------------------------------------------------------
                                                                              

-7---8-7-------7---8-7-------7---8-7------7---8-7-----------------------------
---9-----9---9---9-----9---9---9-----9--9---9-----9---------------------------
-----------0-------------0------------0---------------------------------------
------------------------------------------------------------------------------
------------------------------------------------------------------------------
------------------------------------------------------------------------------

-0----------------------------------------------------|-0---------------------
-0----------------------------------------------------|-0---------------------
-0----------------------------------------------------|-1---------------------
-2----------------------------------------------------|-2---------------------
-2----------------------------------------------------|-2---------------------
-0----------------------------------------------------|-0---------------------

-0----------------------------------------------------|-0---------------------
-0----------------------------------------------------|-0---------------------
-0----------------------------------------------------|-1---------------------
-2----------------------------------------------------|-2---------------------
-2----------------------------------------------------|-2---------------------
-0----------------------------------------------------|-0---------------------
                                                                              


   

Muse - Sunburn (live acoustic at HMV version)
Transcribed By Dan Lea

Chris on acoustic guitar:

E-|----0---|----0---|----0---|----0---|
B-|--0--0-0|--1--1-1|--1--1-1|--1--1-1|
G-|-0-0--0-|-2-2--2-|-0-0--0-|-2-2--2-|
D-|2-------|2-------|2-------|2-------|
A-|--------|--------|--------|--------|
E-|--------|--------|--------|--------|

Repeats through all verses, then the chords in the chorus are something like these:

E-  0  0    0
B-  5  5    0
G-  5  5    0
D-  4  5    5
A-  0  0    7
E-  0  0    7

You can work out the timing...

Matt's part:

E-|- 7 - - 7 - - -|- 7 - - 7 - - -|- 8 - - 8 - - -|- 7 - - 7 - - -|
B-|- - 8 - - 8 - 8|- - 5 - - 5 - 5|- - 8 - - 8 - 8|- - 5 - - 5 - 5|
G-|- - - 9 - - 9 -|- - - 5 - - 5 -|- - - 9 - - 9 -|- - - 5 - - 5 -|
D-|9 - - - - - - -|7 - - - - - - -|10- - - - - - -|7 - - - - - - -|
A-|- - - - - - - -|- - - - - - - -|- - - - - - - -|- - - - - - - -|
E-|- - - - - - - -|- - - - - - - -|- - - - - - - -|- - - - - - - -|

Then the chords in the chorus are roughly...

E-  0  0    0
B-  7  8    8
G-  9  9    9
D-  10 10   9
A-  0  0    7
E-  0  0    0

The solo goes as shown (or atleast it is supposed to - Matt cocked it up a bit in HMV):

E-|-  -  -  -  -  -  10 11 12 11 10 -  -  -  -  -
B-|11 12 11 10 11 12 -  -  -  -  -  12 11 10 11 10         x2

E-|-  -  -  -  -  -  10 11 12 11 10 -  -  -  -  -
B-|11 12 11 10 11 12 -  -  -  -  -  12 11 10 11 12

E-|10 11 12 11 10 -  -  -  -  -  -  -  -  -  10 11 12
B-|-  -  -  -  -  12 11 10 11 12 11 10 11 12 -  -  -


If you have any queries about this tab or want more Muse (or other decent bands') tabs 
then email me at danlea@ic24.net
  development and support by
dmitry ivanov