rock
 
|tablatures   |lyrics   |discussion forums   |more tabs @ XGuitar.com

Muse tabs

Sunburn bass tab

sunburn
       By Muse. Tabbed by FeRg. music@iferguson48.freeserve.co.uk
not quite right; amend it as you see fit. drop D tuning, as far as I know. :) 


                                                                        
G---||------------------------------------------------------------------
D---||-----7--10--7-----7--10--7----------------------------------------
A---||--7------------7--------------------------------------------------
D---||------------------------------------------------------------------
                                                                        

         not sure about timing here.amend as necessary.                 
G---||------------------------------------------------------------------
D---||*--------7-----5--6--7--5--6--7--6--7-----------------------------
A---||*--0--0-----0--------------------------7--7-----------------------
D---||---------------------------------------------0--1--2--3--0--1-----
                                                                        

           6x                                                           
G----------||-----------------------------------------------------------
D---------*||-----------------------------------------------------------
A---------*||-----------------------------------------------------------
D---2--3---||-----------------------------------------------------------
  development and support by
dmitry ivanov