rock
 
|tablatures   |lyrics   |discussion forums   |more tabs @ XGuitar.com

Muse tabs

Stockholm Syndrome guitar tab

Intro
E|---------------------------------------------------------
B|---------------------------------------------------------
G|---------------------------------------------------------
D|--------------------------------------------------------- x6
A|---------------------------------------------------------
D|--12-13-12-10-12-13-12-10-12-13-12-10-12-13-16-16-16-16

Verse
E|------------------------------------------------------------------
B|------------------------------------------------------------------
G|--7-7-7-7-5-5-5-5-4-4-4-4-3-3-3-3-7-7-7-7-6-6-6-6-5-5-5-5-7-7-7-7-
D|--x-x-x-x-x-x-x-x-x-x-x-x-x-x-x-x-x-x-x-x-x-x-x-x-x-x-x-x-x-x-x-x- 
A|--5-5-5-5-3-3-3-3-2-2-2-2-1-1-1-1-5-5-5-5-4-4-4-4-3-3-3-3-5-5-5-5- 
D|------------------------------------------------------------------

E|---------------------------------------------------------------
B|---------------------------------------------------------------
G|--15-15-15-15-14-14-14-14-12-12-12-12-12-12-12-12-12-12-12-12--
D|--x--x--x--x--x--x--x--x--x--x--x--x--x--x--x--x--x--x--x--x--- 
A|--13-13-13-13-12-12-12-12-10-10-10-10-10-10-10-10-10-10-10-10-- 
D|---------------------------------------------------------------

E|---------------------------
B|---------------------------
G|--12-12-12-12-14-14-14-14--
D|--x--x--x--x--x--x--x--x---
A|--10-10-10-10-12-12-12-12-- 
D|---------------------------

Bit before Chorus
E|---------
B|---------
G|---------
D|--5-4-3--
A|--5-4-3-- 
D|--5-4-3

Chorus               End of Chorus
E|-----------        E|-----
B|-----------        B|----- 
G|-----------        G|-----
D|--3--2--0-- x2     D|--8--
A|--3--2--0--        A|--8--
D|--3--2--0--        D|--8--

Interlude
E|---------------------
B|---------------------
G|---------------------
D|--3-3-6-6-7-7-10-11-- 
A|--3-3-6-6-7-7-10-11--
D|--3-3-6-6-7-7-10-11--

Solo
E|---------------------------------------------------------
B|---------------------------------------------------------
G|---------------------------------------------------------
D|--------------------------------------------------------- x2 
A|---------------------------------------------------------
D|--12-13-12-10-12-13-12-10-12-13-12-10-12-13-16-16-16-16--

E|---------------------------------------------------
B|---------------------------------------------------
G|---------------------------------------------------
D|--------------------------------------------------- x4  
A|---------------------------------------------------
D|--12-13-12-10-12-13-12-10-12-13-12-10-12-13-12-10--

E|-------------------------------------------------------------------
B|-------------------------------------------------------------------
G|-------------------------------------------------------------------
D|--8-5-0-8-5-0-8-5-7-3-0-7-3-0-7-3-5-2-0-5-2-0-5-2-5-1-0-5-1-0-5-1--   
A|-------------------------------------------------------------------
D|-------------------------------------------------------------------

E|---------------------------------------------------
B|---------------------------------------------------
G|---------------------------------------------------
D|--7-8-7-5-7-8-7-5-7-8-7-5-7-8-7-5-7-8-7-5-7-8-7-5--   
A|---------------------------------------------------
D|---------------------------------------------------

Ending
E|-----------------------
B|-----------------------
G|-----------------------
D|----------------------- x8 
A|-----------------------
D|--0-0-13-0-12-0-10-12--


Order
Intro
Verse x2
Chorus
Interlude
Intro
Verse
Chorus
Interlude
Solo
Chorus
Interlude x2
Ending
  development and support by
dmitry ivanov