rock
 
|tablatures   |lyrics   |discussion forums   |more tabs @ XGuitar.com

Muse tabs

Shrinking Universe guitar tab

Intro:
E|------------|
B|---------5~-|
G|---5-4-5----|
D|-7----------|
A|------------|
E|------------|

===============================================================
Verse:
E|-------------------------------1----------5---|
B|---------5--------3-6--------0----------5-----|
G|---5-4-5--------4----------1----------7-------|
D|-7--------------------------------------------|
A|----------------------------------------------|
E|----------------------------------------------|

===============================================================
Chorus:
E|--------------------|------------|
B|--------------------|------------|
G|-6--6-6-66--6-6-6---|7--7-7-77---|
D|-6--6-6-66--6-6-6---|7--7-7-77---|
A|-4--4-4-44--4-4-4---|5--5-5-55---|
E|--------------------|------------|
can`t  you  see it`s  |Over

                  E|---------|--------------|------------|
                  B|---------|--------------|------------|
                  G|---------|7-7-7-77------|------------|
                  D|2-2-2-22-|7-7-7-77------|-7-7-7-77---|
                  A|2-2-2-22-|5-5-5-55------|-7-7-7-77---|
                  E|0-0-0-00-|--------------|-5-5-5-55---|
Because you're the |god of a |shrinking uni-|verse

===============================================================
Solo:  I think it`s just "E-chord" and "Cmaj7",
       if it`s wrong you say....


Njoy....
  development and support by
dmitry ivanov