rock
 
|tablatures   |lyrics   |discussion forums   |more tabs @ XGuitar.com

Muse tabs

Shrinking Universe bass tab

Band - Muse
Song - Shrinking Universe
Album - Hulabaloo
Bassist - Chris Wolstenholme
Tuning - Drop D

*-play 8 times
+-play 16 times
//-slide down
~-let note ring

Verse 1
G----------------------------
D----------------------------
A---------------------------- x2
D -7//0--79//0--95//0--57//0-

Chrous 1
G----------------------------
D----------------------------
A---------------------------- x1
D-7//0--12//0--5//0--7//0-7~-

Verse 2
G----------------------------
D----------------------------
A---------------------------- x2 there are little pauses on the rings.
D-7~--7-7-9~--9-9-6~--6-6-7~-

Chorus 2
G-----------------------------------------------------
D-----------------------------------------------------
A----------------------------------------------------- x1
D-7~--7-7-11~--11-11-12~--12-12----9~--9-9-6~--6-6-7~-

Solo
G------------------------
D------------------------
A------------------------ play as much as neccessary
D-2--2-2-2--2-2-2--2-2-2-

G------------------
D------------------
A------------------
D-7*--2*--10*--11*-

Chrous 3
G---------------------------
D---------------------------
A--------------------------- x3
D-7*--11*--12+--9*--2*--7*--

Ending - this comes in during chorus 3 but im sure you can guess where
G--------------
D--------------
A--------------
D-9~---2~---7~-

I love this song i can't believe no ones tebbed it.
  development and support by
dmitry ivanov