rock
 
|tablatures   |lyrics   |discussion forums   |more tabs @ XGuitar.com

Muse tabs

Showbiz guitar tab

Author/Artist: Muse
Title: Showbiz
Album: Showbiz
Transcribed by: Remy Lebbos
Email: muse@ibelgique.com

Controlling my feelings for too long,

------------------------------------------------------------------------------
------------------------------------------------------------------------------
------------------------------------------------------------------------------
------------------------------------------------------------------------------
--9-9-9-9-9-9-9-9-9-9-9-9-9-9-9-9---------------------------------------------
------------------------------------------------------------------------------
                                                                              
Controlling my feelings for too long,

------------------------------------------------------------------------------
------------------------------------------------------------------------------
------------------------------------------------------------------------------
------------------------------------------------------------------------------
--9-9-9-9-9-9-9-9-9-9-9-9-9-9-9-9---------------------------------------------
------------------------------------------------------------------------------
                                                                              
Controlling my feelings for too long,
Controlling my feelings for too long,


------------------------------------------------------------------------------
------------------------------------------------------------------------------
------------------------------------------------------------------------------
------------------------------------------------------------------------------
--9-9-9-9-9-9-9-9-9-9-9-9-9-9-9-9-9-9-9-9-9-9-9-9-9-9-9-9-9-9-9-9-------------
------------------------------------------------------------------------------
                                                                              
Forcing our darkest souls to unfold,
Forcing our darkest souls to unfold,

------------------------------------------------------------------------------
------------------------------------------------------------------------------
------------------------------------------------------------------------------
------------------------------------------------------------------------------
--9--9--9--9--9--9--9--9--9--9--9--9--9--9--9--9--9-9-9-9-9-9-9-9-9-9-9-9-9---
-10-10-10-10-10-10-10-10-10-10-10-10-10-10-10-10--7-7-7-7-7-7-7-7-7-7-7-7-7---
                                                                              
	Pushing us into to self destruction,
						Pushing us into to self destruction.

------------------------------------------------------------------------------
------------------------------------------------------------------------------
------------------------------------------------------------------------------
------------------------------------------------------------------------------
-9-9-9---9--9--9--9--9--9--9--9--9--9--9--9--9--9--9--9--9-9-9-9-9-9-9-9-9-9--
-7-7-7--10-10-10-10-10-10-10-10-10-10-10-10-10-10-10-10--7-7-7-7-7-7-7-7-7-7--
                                                                              

------------------------------------------------------------------------------
------------------------------------------------------------------------------
------------------------------------------------------------------------------
------------------------------------------------------------------------------
-9-9-9-9-9-9------------------------------------------------------------------
-7-7-7-7-7-7------------------------------------------------------------------
                                                                              
They make me
								, make me dream your dreams
-------------2---------------------------------------------------------4------
-------2---------------2---------------9---------------9----------------------
----2----2---------2-----2---2-----7-----7---7-----7-----7---7-----6-----6----
--4--4-----4-----4---4-----4-----7---7-----7-----7---7-----7-----6---6-----6--
-------------------------------5---------------5---------------4--------------
-2-------------2--------------------------------------------------------------


-----------4-----2-------2-------------2--------------------------------------
---------------------2-----2---2---2-----2------------------------------------
-6-----6-----6-----4---4-----4---4---4-----4-2--------------------------------
-----6---6-----6--------------------------------------------------------------
---4--------------------------------------------------------------------------
------------------------------------------------------------------------------

They make me, 						
								make me scream your screams.

-------------2---------------------------------------------------------4------
-------2---------------2---------------9---------------9----------------------
----2----2---------2-----2---2-----7-----7---7-----7-----7---7-----6-----6----
--4--4-----4-----4---4-----4-----7---7-----7-----7---7-----7-----6---6-----6--
-------------------------------5---------------5---------------4--------------
-2-------------2--------------------------------------------------------------

-----------4-----2-------2-------------2--------------------------------------
---------------------2-----2---2---2-----2------------------------------------
-6-----6-----6-----4---4-----4---4---4-----4-2--------------------------------
-----6---6-----6--------------------------------------------------------------
---4--------------------------------------------------------------------------
------------------------------------------------------------------------------


                                                                              

------------------------------------------------------------------------------
------------------------------------------------------------------------------
------------------------------------------------------------------------------
-4-6-7-7/9-7-6-4-6/7/6-4--4-6-7-7/9-7-6-4-6/7/6-4-----------------------------
------------------------------------------------------------------------------
------------------------------------------------------------------------------
Trying to please you for too long,
Trying to please you for too long,
------------------------------------------------------------------------------
------------------------------------------------------------------------------
------------------------------------------------------------------------------
-4-6-7-7/9-7-6-4-6/7/6-4--4-6-7-7/9-7-6-4-6/7/6-4-----------------------------
------------------------------------------------------------------------------
------------------------------------------------------------------------------
                                             
Visions of greed you wallow,
Rhythms of greed you wallow,         
                        
------------------------------------------------------------------------------
------------------------------------------------------------------------------
------------------------------------------------------------------------------
-4-6-7-7/9-7-6-4-6/7/6-4--4-6-7-7/9-7-6-4-6/7/6-4-----------------------------
------------------------------------------------------------------------------
------------------------------------------------------------------------------
        
Visions of greed you wallow,
Rhythms of greed you wallow,

                                                                      
------------------------------------------------------------------------------
------------------------------------------------------------------------------
------------------------------------------------------------------------------
-4-6-7-7/9-7-6-4-6/7/6-4--4-6-7-7/9-7-6-4-6/7/6-4-----------------------------
------------------------------------------------------------------------------
------------------------------------------------------------------------------
                                                                              
                     
They make me, make me dream your dreams,
                                                        

-2-2-2-2-2-2-2-2-2-2-2-2-2-2-2-2--5-5-5-5-5-5-5-5-5-5-5-5-5-5-5-5--4-4-4-4-4--
-2-2-2-2-2-2-2-2-2-2-2-2-2-2-2-2--7-7-7-7-7-7-7-7-7-7-7-7-7-7-7-7--6-6-6-6-6--
-2-2-2-2-2-2-2-2-2-2-2-2-2-2-2-2--7-7-7-7-7-7-7-7-7-7-7-7-7-7-7-7--6-6-6-6-6--
-4-4-4-4-4-4-4-4-4-4-4-4-4-4-4-4--7-7-7-7-7-7-7-7-7-7-7-7-7-7-7-7--6-6-6-6-6--
-4-4-4-4-4-4-4-4-4-4-4-4-4-4-4-4--5-5-5-5-5-5-5-5-5-5-5-5-5-5-5-5--4-4-4-4-4--
-2-2-2-2-2-2-2-2-2-2-2-2-2-2-2-2--5-5-5-5-5-5-5-5-5-5-5-5-5-5-5-5--4-4-4-4-4--
                                                                              

-4-4-4-4-4-4-4-4-4-4-4--2-2-2-2-2-2-2-2-2-2-2-2-2-2-2-2-----------------------
-6-6-6-6-6-6-6-6-6-6-6--3-3-3-3-3-3-3-3-3-3-3-3-3-3-3-3-----------------------
-6-6-6-6-6-6-6-6-6-6-6--4-4-4-4-4-4-4-4-4-4-4-4-4-4-4-4-----------------------
-6-6-6-6-6-6-6-6-6-6-6--4-4-4-4-4-4-4-4-4-4-4-4-4-4-4-4-----------------------
-4-4-4-4-4-4-4-4-4-4-4--2-2-2-2-2-2-2-2-2-2-2-2-2-2-2-2-----------------------
-4-4-4-4-4-4-4-4-4-4-4--2-2-2-2-2-2-2-2-2-2-2-2-2-2-2-2-----------------------
                                                                              
They make me, make me scream your screams. 


-2-2-2-2-2-2-2-2-2-2-2-2-2-2-2-2--5-5-5-5-5-5-5-5-5-5-5-5-5-5-5-5--4-4-4-4-4--
-2-2-2-2-2-2-2-2-2-2-2-2-2-2-2-2--7-7-7-7-7-7-7-7-7-7-7-7-7-7-7-7--6-6-6-6-6--
-2-2-2-2-2-2-2-2-2-2-2-2-2-2-2-2--7-7-7-7-7-7-7-7-7-7-7-7-7-7-7-7--6-6-6-6-6--
-4-4-4-4-4-4-4-4-4-4-4-4-4-4-4-4--7-7-7-7-7-7-7-7-7-7-7-7-7-7-7-7--6-6-6-6-6--
-4-4-4-4-4-4-4-4-4-4-4-4-4-4-4-4--5-5-5-5-5-5-5-5-5-5-5-5-5-5-5-5--4-4-4-4-4--
-2-2-2-2-2-2-2-2-2-2-2-2-2-2-2-2--5-5-5-5-5-5-5-5-5-5-5-5-5-5-5-5--4-4-4-4-4--
                                                                              

-4-4-4-4-4-4-4-4-4-4-4--2-2-2-2-2-2-2-2-2-2-2-2-2-2-2-2-----------------------
-6-6-6-6-6-6-6-6-6-6-6--3-3-3-3-3-3-3-3-3-3-3-3-3-3-3-3-----------------------
-6-6-6-6-6-6-6-6-6-6-6--4-4-4-4-4-4-4-4-4-4-4-4-4-4-4-4-----------------------
-6-6-6-6-6-6-6-6-6-6-6--4-4-4-4-4-4-4-4-4-4-4-4-4-4-4-4-----------------------
-4-4-4-4-4-4-4-4-4-4-4--2-2-2-2-2-2-2-2-2-2-2-2-2-2-2-2-----------------------
-4-4-4-4-4-4-4-4-4-4-4--2-2-2-2-2-2-2-2-2-2-2-2-2-2-2-2-----------------------
                                                                              

Controlling my feelings for too long,
Controlling my feelings for too long

------------------------------------------------------------------------------
------------------------------------------------------------------------------
------------------------------------------------------------------------------
-4-6-7-7/9-7-6-4-6/7/6-4--4-6-7-7/9-7-6-4-6/7/6-4-----------------------------
------------------------------------------------------------------------------
------------------------------------------------------------------------------

And forcing our darkest souls to unfold,
And forcing our darkest souls to unfold,

------------------------------------------------------------------------------
------------------------------------------------------------------------------
------------------------------------------------------------------------------
-4-6-7-7/9-7-6-4-6/7/6-4--4-6-7-7/9-7-6-4-6/7/6-4-----------------------------
------------------------------------------------------------------------------
------------------------------------------------------------------------------

And pushing us into to self destruction,
And pushing us into to self destruction,

------------------------------------------------------------------------------
------------------------------------------------------------------------------
------------------------------------------------------------------------------
-4-6-7-7/9-7-6-4-6/7/6-4--4-6-7-7/9-7-6-4-6/7/6-4-----------------------------
------------------------------------------------------------------------------
------------------------------------------------------------------------------

They make me, make me dream your dreams,
                                                        

-2-2-2-2-2-2-2-2-2-2-2-2-2-2-2-2--5-5-5-5-5-5-5-5-5-5-5-5-5-5-5-5--4-4-4-4-4--
-2-2-2-2-2-2-2-2-2-2-2-2-2-2-2-2--7-7-7-7-7-7-7-7-7-7-7-7-7-7-7-7--6-6-6-6-6--
-2-2-2-2-2-2-2-2-2-2-2-2-2-2-2-2--7-7-7-7-7-7-7-7-7-7-7-7-7-7-7-7--6-6-6-6-6--
-4-4-4-4-4-4-4-4-4-4-4-4-4-4-4-4--7-7-7-7-7-7-7-7-7-7-7-7-7-7-7-7--6-6-6-6-6--
-4-4-4-4-4-4-4-4-4-4-4-4-4-4-4-4--5-5-5-5-5-5-5-5-5-5-5-5-5-5-5-5--4-4-4-4-4--
-2-2-2-2-2-2-2-2-2-2-2-2-2-2-2-2--5-5-5-5-5-5-5-5-5-5-5-5-5-5-5-5--4-4-4-4-4--
                                                                              

-4-4-4-4-4-4-4-4-4-4-4--2-2-2-2-2-2-2-2-2-2-2-2-2-2-2-2-----------------------
-6-6-6-6-6-6-6-6-6-6-6--3-3-3-3-3-3-3-3-3-3-3-3-3-3-3-3-----------------------
-6-6-6-6-6-6-6-6-6-6-6--4-4-4-4-4-4-4-4-4-4-4-4-4-4-4-4-----------------------
-6-6-6-6-6-6-6-6-6-6-6--4-4-4-4-4-4-4-4-4-4-4-4-4-4-4-4-----------------------
-4-4-4-4-4-4-4-4-4-4-4--2-2-2-2-2-2-2-2-2-2-2-2-2-2-2-2-----------------------
-4-4-4-4-4-4-4-4-4-4-4--2-2-2-2-2-2-2-2-2-2-2-2-2-2-2-2-----------------------
                                                                              
They make me, make me scream your screams. 


-2-2-2-2-2-2-2-2-2-2-2-2-2-2-2-2--5-5-5-5-5-5-5-5-5-5-5-5-5-5-5-5--4-4-4-4-4--
-2-2-2-2-2-2-2-2-2-2-2-2-2-2-2-2--7-7-7-7-7-7-7-7-7-7-7-7-7-7-7-7--6-6-6-6-6--
-2-2-2-2-2-2-2-2-2-2-2-2-2-2-2-2--7-7-7-7-7-7-7-7-7-7-7-7-7-7-7-7--6-6-6-6-6--
-4-4-4-4-4-4-4-4-4-4-4-4-4-4-4-4--7-7-7-7-7-7-7-7-7-7-7-7-7-7-7-7--6-6-6-6-6--
-4-4-4-4-4-4-4-4-4-4-4-4-4-4-4-4--5-5-5-5-5-5-5-5-5-5-5-5-5-5-5-5--4-4-4-4-4--
-2-2-2-2-2-2-2-2-2-2-2-2-2-2-2-2--5-5-5-5-5-5-5-5-5-5-5-5-5-5-5-5--4-4-4-4-4--
                                                                              

-4-4-4-4-4-4-4-4-4-4-4--2-2-2-2-2-2-2-2-2-2-2-2-2-2-2-2-----------------------
-6-6-6-6-6-6-6-6-6-6-6--3-3-3-3-3-3-3-3-3-3-3-3-3-3-3-3-----------------------
-6-6-6-6-6-6-6-6-6-6-6--4-4-4-4-4-4-4-4-4-4-4-4-4-4-4-4-----------------------
-6-6-6-6-6-6-6-6-6-6-6--4-4-4-4-4-4-4-4-4-4-4-4-4-4-4-4-----------------------
-4-4-4-4-4-4-4-4-4-4-4--2-2-2-2-2-2-2-2-2-2-2-2-2-2-2-2-----------------------
-4-4-4-4-4-4-4-4-4-4-4--2-2-2-2-2-2-2-2-2-2-2-2-2-2-2-2-----------------------

Solos
------------------------------------------------------------------------------
-7-7-7-7-7-7-7-7-7-9-9-9-9--10-10-10-10-12-12-12-12-12-12-12-12-14-14-14-14---
------------------------------------------------------------------------------
------------------------------------------------------------------------------
------------------------------------------------------------------------------
------------------------------------------------------------------------------
                                                                              

------------------------------------------------------------------------------
-15-15-17-17-18-18-18-18-18-18-18-18-18-18-18-18-18-18-18-18---18/19--18/19---
------------------------------------------------------------------------------
------------------------------------------------------------------------------
------------------------------------------------------------------------------
------------------------------------------------------------------------------
                                                                              

---------------------------14-16-17-19-17-16-14-16-17-16-14-------------------
-18/19--21-21-19-21-19-21-----------------------------------------------------
------------------------------------------------------------------------------
------------------------------------------------------------------------------
------------------------------------------------------------------------------
------------------------------------------------------------------------------
                                                                              

-14-16-17-19-17-16-14-16-17-16-14--14-16-17-19-17-16-14-16-17-16-14--14-16----
------------------------------------------------------------------------------
------------------------------------------------------------------------------
------------------------------------------------------------------------------
------------------------------------------------------------------------------
------------------------------------------------------------------------------
                                                                              

-17-19-17-16-14-16-17-16-14---------------------------------------------------
------------------------------------------------------------------------------
------------------------------------------------------------------------------
------------------------------------------------------------------------------
------------------------------------------------------------------------------
------------------------------------------------------------------------------
                                                                              

-------------2---------------------------------------------------------4------
-------2---------------2---------------9---------------9----------------------
----2----2---------2-----2---2-----7-----7---7-----7-----7---7-----6-----6----
--4--4-----4-----4---4-----4-----7---7-----7-----7---7-----7-----6---6-----6--
-------------------------------5---------------5---------------4--------------
-2-------------2--------------------------------------------------------------

-----------4-----2-------2-------------2--------------------------------------
---------------------2-----2---2---2-----2------------------------------------
-6-----6-----6-----4---4-----4---4---4-----4-2--------------------------------
-----6---6-----6--------------------------------------------------------------
---4--------------------------------------------------------------------------
------------------------------------------------------------------------------


-------------2---------------------------------------------------------4------
-------2---------------2---------------9---------------9----------------------
----2----2---------2-----2---2-----7-----7---7-----7-----7---7-----6-----6----
--4--4-----4-----4---4-----4-----7---7-----7-----7---7-----7-----6---6-----6--
-------------------------------5---------------5---------------4--------------
-2-------------2--------------------------------------------------------------

-----------4-----2-------2-------------2--------------------------------------
---------------------2-----2---2---2-----2------------------------------------
-6-----6-----6-----4---4-----4---4---4-----4-2--------------------------------
-----6---6-----6--------------------------------------------------------------
---4--------------------------------------------------------------------------
------------------------------------------------------------------------------

  development and support by
dmitry ivanov