rock
 
|tablatures   |lyrics   |discussion forums   |more tabs @ XGuitar.com

Muse tabs

Showbiz bass tab

Song: Showbiz                
Artist: Muse (on Showbiz cd) 
Tabbed by: Alan Martin       
Date: 28/08/01               

This took a while as you can imagine. Therefore, be gentle in your critisisms
please as this is also my first attempt at a tab. I could'nt see a tab for Showbiz
anywhere, so I thought I'd give it a go. Well, it may be outta tune or just bad in
general, but at least I tried, eh? I also gave you times to help you out.
E-mail me with corrections/comments at:-
alans@damncomputer.fsnet.co.uk  
~~~~~~~~~~~~~~~~~~~~~~~~~~~~~~
Legend:
  
^=bend
h=hammer-on
p=pull-off
/\=slide up/down
~=let ring


    drum intro           !(00:32)
G |----------------------|-----^-------^------^---|-
D |----------------------|-^---4---^---4---^--4---|-
A |----------------------|-3-------3-------33-----|-
E |----------------------|---0---0---0---0------0-|-

    drums                                         !(00:45)
G |----------------------|-----^-------^------^---|-
D |----------------------|-^---4---^---4---^--4---|-
A |----------------------|-3-------3-------33-----|-
E |----------------------|---0---0---0---0------0-|-

   vocals...                   !(01:02)
G |-----------------------------------------------|-
D |-----------------------------------------------|-
A |-----------------------------------------------|-
E |-----------------------------------------------|-
                                                     
                                                                    !(01:11)
G |-----------------------------------------------------------------
D |-----------------------------------------------------------------
A |-3-3-3-3-3-3-3-3-3-3-3-3-3-3-3-3-6-6-6-6-6-6-6-6-6-6-6-6-6-6-6-6-
E |-----------------------------------------------------------------


G |-----------------------------------------------------------------
D |-----------------------------------------------------------------
A |---------------------------------9-9-9-9-9-9-9-9-9-9-9-9-9-9-9-9-
E |-5-5-5-5-5-5-5-5-5-5-5-5-5-5-5-5---------------------------------

                                                                   !(01:28)
G |-----------------------------------------------------------------
D |-----------------------------------------------------------------
A |-3-3-3-3-3-3-3-3-3-3-3-3-3-3-3-3-6-6-6-6-6-6-6-6-6-6-6-6-6-6-6-6-
E |-----------------------------------------------------------------


G |-----------------------------------------------------------------
D |-----------------------------------------------------------------
A |---------------------------------9-9-9-9-9-9-9-9-9-9-9-9-9-9-9-9-
E |-5-5-5-5-5-5-5-5-5-5-5-5-5-5-5-5---------------------------------

                                                                    !(01:45)
G |-----------------------------------------------------------------|-
D |-----------------------------------------------------------------|-
A |-3-3-3-3-3-3-3-3-3-3-3-3-3-3-3-3-6-6-6-6-6-6-6-6-6-6-6-6-6-6-6-6-|-
E |-----------------------------------------------------------------|-

                                                                    !(01:53)
G |-----------------------------------------------------------------|-
D |-----------------------------------------------------------------|-
A |-----------------------------------------------------------------|-
E |-5-5-5-5-5-5-5-5-5-5-5-5-5-5-5-5-5-5-5-5-5-5-5-5-5-5-5-5-5-5-5-5-|-

                                                    !(02:01)                 
G |-------------------------------------------------|-
D |-------------------------------------------------|-
A |-------------------------------------------------|-
E |-5h6-5h6-5h6-5h6-5h6p5h6-5h6-5h6-5h6-5h6-5h6p5h6-|-


G |-----------------------------------------------------------------|-
D |-----------------------------------------------------------------|-
A |-6-6-6-6-6-6-6-6-6-6-6-6-6-6-6-6\3-3-3-3-3-3-3-3-3-3-3-3-3-3-3h4-|-
E |-----------------------------------------------------------------|-

                                                                        !(02:17)
G |---------------------------------------------------------------------|-
D |---------------------------------------------------------------------|-
A |-6-6-6-6-6-6-6-6-6-6-6-6-6-6-6-6\3-3-3-3-3-3-3-3-3/------------------|-
E |---------------------------------------------------11111212-111112\5-|-
                                            {view as 11-11-12-12-11-11-12\5 throught}
                                                     

G |-----------------------------------------------------------------
D |-----------------------------------------------------------------
A |---------------------------------9-9-9-9-9-9-9-9-9-9-9-9-9-9-9-9-
E |-5-5-5-5-5-5-5-5-5-5-5-5-5-5-5-5---------------------------------


G |-----------------------------------------------------------------
D |-----------------------------------------------------------------
A |-3-3-3-3-3-3-3-3-3-3-3-3-3-3-3-3-6-6-6-6-6-6-6-6-6-6-6-6-6-6-6-6-
E |-----------------------------------------------------------------


G |-----------------------------------------------------------------
D |-----------------------------------------------------------------
A |---------------------------------9-9-9-9-9-9-9-9-9-9-9-9-9-9-9-9-
E |-5-5-5-5-5-5-5-5-5-5-5-5-5-5-5-5---------------------------------

                                                                    !(02:48)
G |-----------------------------------------------------------------|-
D |-----------------------------------------------------------------|-
A |-3-3-3-3-3-3-3-3-3-3-3-3-3-3-3-3-6-6-6-6-6-6-6-6-6-6-6-6-6-6-6-6-|-
E |-----------------------------------------------------------------|-

                                                                       
G |------------------------------------------------------------------|-
D |------------------------------------------------------------------|-
A |-/7-7-7-7-7-7-7-7-7-7-7-7-7-7-7-7-7-7-7-7-7-7-7-7-7-7-7-7-7-7-7-7-|-
E |------------------------------------------------------------------|-

                                                                    !(03:03)
G |-----------------------------------------------------------------|-
D |-----------------------------------------------------------------|-
A |-7h8-7h8-7h8-7h8-7h8-7h8-7h8-7h8-7h8-7h8-7h8-7h8-7h8-7h8-7h8-7h8-|-
E |-----------------------------------------------------------------|-

                                                     
G |--------------------------------------------------
D |--5--5--5--5--5--5--5--5\-3--3--3--3--3--3--3--3/-
A |-5--5--5--5--5--5--5--5--3--3--3--3--3--3--3--3---
E |--------------------------------------------------

                                                     !(03:18)
G |--------------------------------------------------|-
D |--5--5--5--5--5--5--5--5\-3--3--3--3--3--3--3--3/-|-
A |-5--5--5--5--5--5--5--5--3--3--3--3--3--3--3--3---|-
E |--------------------------------------------------|-

 !(Continue this riff til end, and go a bit mad if you want. End on an E |-5~) 
G |-----------------------------------------------------------------
D |-----------------------------------------------------------------
A |---------------------------------9-9-9-9-9-9-9-9-9-9-9-9-9-9-9-9-
E |-5-5-5-5-5-5-5-5-5-5-5-5-5-5-5-5---------------------------------


G |---------------------------------------------------------------------|-
D |---------------------------------------------------------------------|-
A |-3-3-3-3-3-3-3-3-3-3-3-3-3-3-3-3-6-6-6-6-6-6-6-6-6/------------------|-
E |---------------------------------------------------11111212-111112\5-|-
                                                    {this part also varies}

Cheers!
~~~~~~~
  development and support by
dmitry ivanov