rock
 
|tablatures   |lyrics   |discussion forums   |more tabs @ XGuitar.com

Muse tabs

Ruled By Secrecy guitar tab

Mxtabs [http://www.mxtabs.net]
Muse - Ruled By Secrecy
Written by Matthew Bellamy, Chris Wolstenholme and Dominic Howard


Tuning: Dropped D (DADGBE)

This is my first tab. I tried to make a guitar version of this amazing song. It\'s not very acurate and it sounds a lot better on the piano, but... 
PS: I used an acoustic guitar. I have no electric guitar. Bwahhaha. 

-Verse

1st guitar

E |---8------------8------------------------
B |-----9-8----8-9----9-8----8-9------------
G |---------10------------10----------------
D |-----------------------------------------
A |-----------------------------------------
D |-----------------------------------------

Repeat... That\'s the main thingy. After a while, a little bit before Matt starts singing, a second guitar (?) comes in. 


2nd guitar

E |------------------------------------------------------
B |--------1-----------1-----------1-----------1---------
G |------1---1-------1---1-------1---1-------1---1-------
D |----3-------3---3-------3---3-------3---3-------3-----
A |--3-----------3-----------3-----------3---------------
D |------------------------------------------------------


*
E |------------------------------------------------------
B |--------1-----------1-----------1-----------1---------
G |------1---1-------1---1-------1---1-------1---1-------
D |----3-------3---3-------3---3-------3---3-------3-----
A |--3-----------3-----------3-----------3---------------
D |------------------------------------------------------

E |------------------------------------------------------
B |--------1-----------1-----------1-----------1---------
G |------0---0-------0---0-------0---0-------0---0-------
D |----2-------2---2-------2---2-------2---2-------2-----
A |--3-----------3-----------3-----------3---------------
D |------------------------------------------------------

E |------------------------------------------------------
B |--------1-----------1-----------1-----------1---------
G |------0---0-------0---0-------0---0-------0---0-------
D |----1-------1---1-------1---1-------1---1-------1-----  Kinda hard :|
A |--3-----------3-----------3-----------3---------------
D |------------------------------------------------------

E |------------------------------------------------------
B |--------1-----------1-----------1-----------1---------
G |------0---0-------0---0-------0---0-------0---0-------
D |----2-------2---2-------2---2-------2---2-------2-----
A |--3-----------3-----------3-----------3---------------
D |------------------------------------------------------
*

Repeat the stuff between the 2 \"*\".


-Chorus 
Now, I haven\'t tabbed the chorus yet, but i\'ll try to soon. Lets move to the piano thingy.



-Interlude

E |------4-4-5-6-5-4---
B |------6-6-6-6-6-6---
G |------5-5-5-5-5-5---
D |--3----------------- (x2)
A |--3-----------------
D |--3-----------------

E |------3-3-3-3-4-3---
B |------5-5-5-5-5-5---
G |------5-5-5-5-5-5---
D |--2----------------- (x2)
A |--3-----------------
D |--2-----------------

E |------3-3-4-6-4-3---
B |------4-4-4-4-4-4---
G |------5-5-5-5-5-5---
D |--1----------------- (x2)
A |--3-----------------
D |--1-----------------

E |------3-3-3-3-4-3---
B |------5-5-5-5-5-5---
G |------5-5-5-5-5-5---
D |--2----------------- (x2)
A |--3-----------------
D |--2-----------------

I suggest you use another guitar to do the power chords. It\'s a lot easier. And you must let them ring. So it\'s really recommended. 
That\'s it. Then you play the chorus, which i haven\'t tabbed, but must be something like the verse. 

Tee hee, my first tab. Really proud of it ^.^ Hope you find it useful... Anything... E-mail me... Sno0t@hotmail.com 
PS: I do need the chorus. If you happen to tab it before me, please, e-mail it to me, so i can add it to this tab. My first tab. Tee hee ^^
  development and support by
dmitry ivanov