rock
 
|tablatures   |lyrics   |discussion forums   |more tabs @ XGuitar.com

Muse tabs

Ruled By Secrecy bass tab

Artist: Muse
Song: Ruled By Secrecy
Album: Absolution (2003)
Tuning: C-A-D-G
Notes: I don't know what tuning Chris uses on this song but he seems to hit
       very low notes so I've tabbed it on a 4-string tuned to C-A-D-G

~ - Let Ring


Verse 1:
G|-------------------------------------------|
D|---3~----------2~----------1~--------------|
A|--------------------------------------3~---|
C|-------------------------------------------| (x2)


Chorus:
G|-----------------------------------------------------------|
D|-----------------------------------------------------------|
A|---4~----------5~----------6~-----------7~-----------8~----|
C|-----------------------------------------------------------|

G|--------------------------------------|
D|--------------------------------------|
A|---7~-----6~------------------5~------|
C|------------------8~------------------|

G|---------------------------|
D|---3~----------3~----------|
A|---------------------------|
C|---------------------------|



Verse 2:
G|-------------------------------------------|
D|---3~----------2~----------1~--------------|
A|--------------------------------------3~---|
C|-------------------------------------------| (x2)



Chorus:
G|-----------------------------------------------------------|
D|-----------------------------------------------------------|
A|---4~----------5~----------6~-----------7~-----------8~----|
C|-----------------------------------------------------------|

G|--------------------------------------|
D|--------------------------------------|
A|---7~-----6~------------------5~------|
C|------------------8~------------------|



Verse 3:
G|------------------------------------------------|
D|------------------------------------------------|
A|------------------------------------------------|
C|---5-----5-----4-----4-----3-----3----0-----0---| (x2)



Final Chorus:
G|-----------------------------------------------------------------------------|
D|-----------------------------------------------------------------------------|
A|---4-4-4-4-4-4-4-4-4-4-4-4-4-4-4-4-4-4-5-5-5-5-5-5-5-5-5-5-5-5-5-5-5-5-5-5---|
C|-----------------------------------------------------------------------------|

G|-----------------------------------------------------------------------------|
D|-----------------------------------------------------------------------------|
A|---6-6-6-6-6-6-6-6-6-6-6-6-6-6-6-6-6-6-7-7-7-7-7-7-7-7-7-7-7-7-7-7-7-7-7-7---|
C|-----------------------------------------------------------------------------|

G|-----------------------------------------|
D|-----------------------------------------|
A|---8-8-8-8-8-8-8-8-8-8-8-8-8-8-8-8-8-8---|
C|-----------------------------------------|

G|-------------------------------------|
D|-------------------------------------|
A|---7~-----6~-------------------------|
C|-----------------8~----------2~------|
  development and support by
dmitry ivanov