rock
 
|tablatures   |lyrics   |discussion forums   |more tabs @ XGuitar.com

Muse tabs

Recess guitar tab

Artist: Muse (who happen to be the best band in the world)
Song: Recess
Album: Hullabaloo Soundtrack
Tuning: E,A,D,G,B,E

/ - Slide from the 1st fret


Acoustic guitar: 
E|--8-7-0-7-8-7-0-7-8-7-0-7-8-7-0-7---------------------------
B|------------------------------------------------------------
G|------------------------------------------------------------
D|------------------------------------------------------------
A|------------------------------------------------------------
E|------------------------------------------------------------

Thats played during the verse and chorus. 


\"Ressuscitate
In my sleep
Awake to see
You\'re never here
And that losing uses
Another year
Face your hopes and fears\"

Then the drums come in. 

\"And I wish...
I could believe there was more...
Hopes suffocating
and you kissed my life\" (he plays the Am chord here) 

Play this riff a few times after the first chorus. 

E|--/11--12---------------------------------------------------
B|---------12-13-----------------------12-13------------------
G|--------------12-13-------------12-13-----------------------
D|--------------------13-14-13-14-----------------------------
A|------------------------------------------------------------
E|------------------------------------------------------------

E|--/11--12---------------------------------------------------
B|---------12-13-----------------------12-13------------------
G|--------------13-14-------------13-14-----------------------
D|--------------------13-14-13-14-----------------------------
A|------------------------------------------------------------
E|------------------------------------------------------------



After the second chorus, there\'s a distortion bit that I\'ll tab as soon as possible. And then... The powerful ending! :D

1st guitar: 
Hum... I don\'t know the name of the pedals, but you need to use the one that makes the notes one octave higher. 
E|---11--12---------------------------------------------------
B|---------12-13-----------------------12-13------------------
G|--------------12-13-------------12-13-----------------------
D|--------------------13-14-13-14-----------------------------
A|------------------------------------------------------------
E|------------------------------------------------------------

E|---11--12---------------------------------------------------
B|---------12-13-----------------------12-13------------------
G|--------------13-14-------------13-14-----------------------
D|--------------------13-14-13-14-----------------------------
A|------------------------------------------------------------
E|------------------------------------------------------------

2nd guitar: 
E|----0-0-----0-0----0-0-----0-0------------------------------
B|----0-0-----0-0----0-0-----0-0------------------------------
G|----1-1-----1-1----1-1-----1-1------------------------------
D|----2-2-----2-2----2-2-----2-2------------------------------
A|-2-------2------2-------2-----------------------------------
E|------------------------------------------------------------

E|----0-0-----0-0----0-0-----0-0------------------------------
B|----1-1-----1-1----1-1-----1-1------------------------------
G|----2-2-----2-2----2-2-----2-2------------------------------
D|----2-2-----2-2----2-2-----2-2------------------------------
A|-0-------0------0-------0-----------------------------------
E|------------------------------------------------------------

\"Hopes suffocating
Hopes suffocating
Hopes suffocating\"

1st guitar: 
E|-13-13-13-13-12-12-12-12-13-13-13-13-12-12-12-12------------
B|------------------------------------------------------------
G|------------------------------------------------------------
D|------------------------------------------------------------
A|------------------------------------------------------------
E|------------------------------------------------------------

E|-13-13-15-15-16-16-16-16-17---let ring----------------------
B|------------------------------------------------------------
G|------------------------------------------------------------
D|------------------------------------------------------------
A|------------------------------------------------------------
E|------------------------------------------------------------

I\'ll try to tab whats missing soon. Hope you find this tab useful. Cheers!
  development and support by
dmitry ivanov