rock
 
|tablatures   |lyrics   |discussion forums   |more tabs @ XGuitar.com

Muse tabs

Plug In Baby guitar tab

Tabbed by:	Tom Woollan
Email:	woollan@hotmail.com

Title:	Plug In Baby
Artist:	Muse
Album:	Origin of Symmetry

I've seen a few other tabs of this song, but I'm going to tab the chorus 
differently.  It's still based around the same chords, and I'm pretty sure 
that I've got it right.  That's my opinion anyway, and if you don't like it, 
you can play it the other way.
Also, some of the bits in the verse may not be played by guitar, but I've 
put them in anyways.

Intro
(Play the first 3 bars twice)
|----------------------2h3p2-0----|--------------------2-2h3p2-1-2-1|
|------------3-----3-5---------3-2|0-2-3-0-2-3-5-2-3-5--------------|
|3-4-6-3-4-6---4-6----------------|---------------------------------|
|---------------------------------|---------------------------------|
|---------------------------------|---------------------------------|
|---------------------------------|---------------------------------|


|2-----------2-4-4b5r4-2-1-2------|----------------------2h3p2-0----|
|--3-------3-----------------3-2-3|------------3-----3-5---------3-2|
|----2---2------------------------|3-4-6-3-4-6---4-6----------------|
|------0--------------------------|---------------------------------|
|---------------------------------|---------------------------------|
|---------------------------------|---------------------------------|


Verse
|----------------|----------------|----------------|----------------|
|-0--------------|----------------|----------------|----------------|
|----------------|----------------|----------------|----------------|
|----------------|----------------|----------------|----------------|
|----------------|----------------|----------------|----------------|
|----------------|----------------|----------------|----------------|


|14--------------|14--------------|15--------------|14--------------|
|--15------------|--14------------|--15------------|--15------------|
|----14----------|----15----------|----16----------|----14----------|
|----------------|----------------|----------------|----------------|
|----------------|----------------|----------------|----------------|
|----------------|----------------|----------------|----------------|

|---------------------------------|
|---------------------------------|
|-2-2-2-2-2-2-2-2-5-5-5-5-5-5-5-5-|
|-4-4-4-4-4-4-4-4-7-7-7-7-7-7-7-7-|
|---------------------------------|
|---------------------------------|


Chorus
|---------------------------------|---------------------------------|
|---------------------------------|---------------------------------|
|-4-4-4-4-4-4-4-4-4-4-4-4-4-4-4-4-|-4-4-4-4-4-4-4-4-6-6-6-6-6-6-6-6-|
|-5-5-5-5-5-5-5-5-5-5-5-5-5-5-5-5-|-4-4-4-4-4-4-4-4-7-7-7-7-7-7-7-7-|
|---------------------------------|---------------------------------|
|---------------------------------|---------------------------------|


|---------------------------------|---------------------------------|
|-3-3-3-3-3-3-3-3-3-3-3-3-3-3-3-3-|-3-3-3-3-3-3-3-3-3-3-3-3---2-2---|
|-4-4-4-4-4-4-4-4-4-4-4-4-4-4-4-4-|-4-4-4-4-4-4-4-4-3-3-3-3---3-3---|
|-5-5-5-5-5-5-5-5-5-5-5-5-5-5-5-5-|-4-4-4-4-4-4-4-4-4-4-4-4---4-4---|
|---------------------------------|---------------------------------|
|---------------------------------|---------------------------------|


|---------------------------------|---------------------------------|
|---------------------------------|---------------------------------|
|-4-4-4-4-4-4-4-4-4-4-4-4-4-4-4-4-|-4-4-4-4-4-4-4-4-6-6-6-6-6-6-6-6-|
|-5-5-5-5-5-5-5-5-5-5-5-5-5-5-5-5-|-4-4-4-4-4-4-4-4-7-7-7-7-7-7-7-7-|
|---------------------------------|---------------------------------|
|---------------------------------|---------------------------------|


|---------------------------------|---------------------------------|
|-3-3-3-3-3-3-3-3-3-3-3-3-5-5-5-5-|-7-7-7-7-7-7-7-7-7-7-7-7-7-7-7-7-|
|-4-4-4-4-4-4-4-4-4-4-4-4-4-4-4-4-|-7-7-7-7-7-7-7-7-7-7-7-7-7-7-7-7-|
|-5-5-5-5-5-5-5-5-5-5-5-5-5-5-5-5-|-7-7-7-7-7-7-7-7-7-7-7-7-7-7-7-7-|
|---------------------------------|---------------------------------|
|---------------------------------|---------------------------------|

Repeat Intro (but play the first 3 bars once only)

Verse 2
|----------------|----------------|---------------|-----------------|
|-0--------------|----------------|---------------|-0---------------|
|----------------|-2--------------|-3-------------|-----------------|
|----------------|----------------|---------------|-----------------|
|----------------|----------------|---------------|-----------------|
|----------------|----------------|---------------|-----------------|


|14--------------|14--------------|15--------------|14--------------|
|--15------------|--14------------|--15------------|--15------------|
|----14----------|----15----------|----16----------|----14----------|
|----------------|----------------|----------------|----------------|
|----------------|----------------|----------------|----------------|
|----------------|----------------|----------------|----------------|


|---------------------------------|
|---------------------------------|
|-2-2-2-2-2-2-2-2-5-5-5-5-5-5-5-5-|
|-4-4-4-4-4-4-4-4-7-7-7-7-7-7-7-7-|
|---------------------------------|
|---------------------------------|

Repeat Chorus

Repeat Intro (but play the first three bars 3 times)

|----||
|0---||
|----||
|----||
|----||
|----||

Yeah, gotta get that last note in.  After that Matt plays some other weird 
stuff.  If you want to play it, it helps if you take a bow and point your 
guitar down to the floor, apparently.




PLUGIN BABY - MUSE
2001 Origin of Symmetry

Tab by : Musedude@hotmail.com

                                                            
E||--------------------------|--------0--2--3--2--0--------|--------------------0-----|
B||--------2--------2--3-----|--2--3-----------------3--2--|--0--2--3--0--2--3-----2--|
G||--3--4-----3--4--------4--|-----------------------------|--------------------------|
D||--------------------------|-----------------------------|--------------------------|
A||--------------------------|-----------------------------|--------------------------|
E||--------------------------|-----------------------------|--------------------------|

                                                            
E||-----0--2--2--3--2--1--2--1--|--2-----------------2--4--|--5--4--2--1--2-----------|
B||--3--------------------------|-----3-----------3--------|-----------------3-----3--|
G||-----------------------------|--------2-----2-----------|--------------------2-----|
D||-----------------------------|-----------4--------------|--------------------------|
A||-----------------------------|--------------------------|--------------------------|
E||-----------------------------|--------------------------|--------------------------|

                                                            
E||--------------------------|--------0--2--3--2--0--------|--------------------------|
B||--------2--------2--3-----|--2--3-----------------3--2--|--0-----------------------|
G||--3--4-----3--4--------4--|-----------------------------|--------------------------|
D||--------------------------|-----------------------------|--------------------------|
A||--------------------------|-----------------------------|--------------------------|
E||--------------------------|-----------------------------|--------------------------|
  development and support by
dmitry ivanov