rock
 
|tablatures   |lyrics   |discussion forums   |more tabs @ XGuitar.com

Muse tabs

New Born guitar tab

Author/Artist: Muse
Title: New Born
Album: Origin of Symmetry
Transcribed by: Steve
Email: Shrinkinguniverse@hotmail.com

Drop-d tuning

-7-------7------|-7-------7-------|-------------------------------------------
---8---8--8---8-|---7---7---7---7-|-------------------------------------------
-----9------9---|-----8-------8---|-------------------------------------------
----------------|-----------------|-------------------------------------------
----------------|-----------------|-------------------------------------------
----------------|-----------------|-------------------------------------------
Intro     play twice then:

-7-------7-------|-8-------8-------|-7-------7-------|-7-------7--------------
---8---8---8---8-|---8---8---8---8-|---8---8---8---8-|---7---7---7---7--------
-----9-------9---|-----9-------9---|-----7-------7---|-----8-------8----------
-----------------|-----------------|-----------------|------------------------
-----------------|-----------------|-----------------|------------------------
-----------------|-----------------|-----------------|------------------------


-----------------|--------------------|-------------------|-------------------
-----------------|--------------------|-------------------|-------------------
-----------------|--------------------|-------------------|---------4-4-4-4---
-2-2-2-2-5-2-5-6-|-7-7-7-7-10-7-10-11-|-12-0-0-12-0-0-3-4-|-5-5-5-5-4-4-4-4---
-2-2-2-2-5-2-5-6-|-7-7-7-7-10-7-10-11-|-12-0-0-12-0-0-3-4-|-5-5-5-5-2-2-2-2---
-2-2-2-2-5-2-5-6-|-7-7-7-7-10-7-10-11-|-12-0-0-12-0-0-3-4-|-5-5-5-5-----------
Riff (I think Matt just plays the chords during the chorus

-----------------|-----------------|-0-0-0-0-0-0-0-0-|------------------------
-----------------|-----------------|-0-0-0-0-0-0-0-0-|-4-4-4-4-4-4-4-4--------
-5-5-5-5-5-5-5-5-|-3-3-3-3-3-3-3-3-|-4-4-4-4-4-4-4-4-|-4-4-4-4-4-4-4-4--------
-5-5-5-5-5-5-5-5-|-2-2-2-2-2-2-2-2-|-4-4-4-4-4-4-4-4-|-4-4-4-4-4-4-4-4--------
-3-3-3-3-3-3-3-3-|-1-1-1-1-1-1-1-1-|-2-2-2-2-2-2-2-2-|-2-2-2-2-2-2-2-2--------
-----------------|-----------------|-----------------|------------------------
   ^first time ^     ^First time ^     ^first time ^

-----------------------|------------------------------------------------------
-----------------------|------------------------------------------------------
-16-16-12-12-9-9-12-12-|-16-16-11-11-8-8-11-11--------------------------------
-----------------------|------------------------------------------------------
-----------------------|------------------------------------------------------
-----------------------|------------------------------------------------------
Solo Matt plays it this way with a pitch shifter i think       x2

-----------------------|-----------------------|-----------------|------------
-----------------------|-----------------------|-----------------|------------
-16-16-12-12-9-9-16-16-|-17-17-12-12-9-9-17-17-|-16-16-12-12-7---|-8-11-16----
-----------------------|-----------------------|-----------------|------------
-----------------------|-----------------------|-----------------|------------
-----------------------|-----------------------|-----------------|------------
                                                               first time^



===========================================================================
===========================================================================
===========================================================================
===========================================================================
===========================================================================



Title: New Born
Album: Origin of Symmetry
Artist: MUSE

Tabbed by Tom Woollan
email: woollan@hotmail.com

Zis is all my own vork, ya?

Drop D tuning

Okey dokey folkeys, this is the piano bit all guitarry like so here it is:

Intro
|7-------7-------|7-------7-------|7-------7-------|7-------7-------|
|--8---8---8---8-|--7---7---7---7-|--8---8---8---8-|--7---7---7---7-|
|----9-------9---|----8-------8---|----9-------9---|----8-------8---|
|----------------|----------------|----------------|----------------|
|----------------|----------------|----------------|----------------|
|----------------|----------------|----------------|----------------|



|7-------7-------|8-------8-------|7-------7-------|7-------7-------|
|--8---8---8---8-|--8---8---8---8-|--8---8---8---8-|--7---7---7---7-|
|----9-------9---|----9-------9---|----7-------7---|----8-------8---|
|----------------|----------------|----------------|----------------|
|----------------|----------------|----------------|----------------|
|----------------|----------------|----------------|----------------|
Play all that 6 times, but on the last time, for the last bar, just strum 
those three notes once - you've heard the song, you know what I mean.


Cool bit (Part I)
|---------------|------------------|----------------|---------------|
|---------------|------------------|----------------|---------------|
|---------------|------------------|----------------|---------------|
|---------------|------------------|----------------|---------------|
|2-2-2-2-5-2-5-6|7-7-7-7-10-7-10-11|12-0-0-0-0-0-3-4|5-5-5-5-9-9-9-9|
|2-2-2-2-5-2-5-6|7-7-7-7-10-7-10-11|12-0-0-0-0-0-3-4|5-5-5-5-9-9-9-9|



|----------------|----------------|----------------|----------------|
|----------------|----------------|5---------------|4-4-4-4-4-4-4-4-|
|----------------|----------------|2-2-2-2-2-2-2-2-|2-2-2-2-2-2-2-2-|
|2-2-2-2-2-2-2-2-|2-2-2-2-2-2-2-2-|4-4-4-4-4-4-4-4-|4-4-4-4-4-4-4-4-|
|3-3-3-3-3-3-3-3-|1-1-1-1-1-1-1-1-|2-2-2-2-2-2-2-2-|2-2-2-2-2-2-2-2-|
|----------------|----------------|----------------|----------------|


Cool bit (part II) play it twice
|---------------|------------------|----------------|---------------|
|---------------|------------------|----------------|---------------|
|---------------|------------------|----------------|---------------|
|---------------|------------------|----------------|---------------|
|2-2-2-2-5-2-5-6|7-7-7-7-10-7-10-11|12-0-0-0-0-0-3-4|5-5-5-5-9-9-9-9|
|2-2-2-2-5-2-5-6|7-7-7-7-10-7-10-11|12-0-0-0-0-0-3-4|5-5-5-5-9-9-9-9|



|-0--------------|-0--------------|-2--------------|-2--------------|
|-1--------------|-2--------------|-5--------------|-4--------------|
|-0--------------|-0--------------|-2--------------|-2--------------|
|-2--------------|-2--------------|-4--------------|-4--------------|
|-3--------------|-1--------------|-2--------------|-2--------------|
|----------------|----------------|----------------|----------------|


Then this:
|----------------|
|----------------|
|----------------|
|-9\-------------|
|-7\-------------|
|----------------|  That was a pretty important bit, I know.



Verse:
|-7---7---7---7--|-7---7---7---7--|-7---7---7---7--|-7---7---7---7--|
|-8---8---8---8--|-7---7---7---7--|-8---8---8---8--|-7---7---7---7--|
|-9---9---9---9--|-8---8---8---8--|-9---9---9---9--|-8---8---8---8--|
|----------------|----------------|----------------|----------------|
|----------------|----------------|----------------|----------------|
|----------------|----------------|----------------|----------------|



|-7---7---7---7--|-8---8---8---8--|-7---7---7---7--|-7---7---7---7--|
|-8---8---8---8--|-8---8---8---8--|-8---8---8---8--|-7---7---7---7--|
|-9---9---9---9--|-9---9---9---9--|-7---7---7---7--|-8---8---8---8--|
|----------------|----------------|----------------|----------------|
|----------------|----------------|----------------|----------------|
|----------------|----------------|----------------|----------------|


|-7---7---7---7--|-7---7---7---7--|-7---7---7---7--|-7---7---7---7--|
|-8---8---8---8--|-7---7---7---7--|-8---8---8---8--|-7---7---7---7--|
|-9---9---9---9--|-8---8---8---8--|-9---9---9---9--|-8---8---8---8--|
|----------------|----------------|----------------|----------------|
|----------------|----------------|----------------|----------------|
|----------------|----------------|----------------|----------------|



|-7---7---7---7--|-8---8---8---8--|-7---7---7---7--|-7---7---7---7--|
|-8---8---8---8--|-8---8---8---8--|-8---8---8---8--|-7---7---7---7--|
|-9---9---9---9--|-9---9---9---9--|-7---7---7---7--|-8---8---8---8--|
|----------------|----------------|----------------|----------------|
|----------------|----------------|----------------|----------------|
|----------------|----------------|----------------|----------------|


|-7---7---7---7--|-7---7---7---7--|-7---7---7---7--|-7---7---7---7--|
|-8---8---8---8--|-7---7---7---7--|-8---8---8---8--|-7---7---7---7--|
|-9---9---9---9--|-8---8---8---8--|-9---9---9---9--|-8---8---8---8--|
|-9--------------|----------------|-9--------------|----------------|
|-7--------------|----------------|-7--------------|----------------|
|----------------|----------------|----------------|----------------|



|-7---7---7---7--|-8---8---8---8--|-7---7---7---7--|-7---7---7---7--|
|-8---8---8---8--|-8---8---8---8--|-8---8---8---8--|-7---7---7---7--|
|-9---9---9---9--|-9---9---9---9--|-7---7---7---7--|-8---8---8---8--|
|-9--------------|----------------|----------------|----------------|
|-7--------------|----------------|----------------|----------------|
|----------------|----------------|----------------|----------------|


|-7---7---7---7--|-7---7---7---7--|-7---7---7---7--|-7---7---7---7--|
|-8---8---8---8--|-7---7---7---7--|-8---8---8---8--|-7---7---7---7--|
|-9---9---9---9--|-8---8---8---8--|-9---9---9---9--|-8---8---8---8--|
|-9--------------|----------------|-9--------------|----------------|
|-7--------------|----------------|-7--------------|----------------|
|----------------|----------------|----------------|----------------|



|-7---7---7---7--|-8---8---8---8--|-7---7---7---7--|-7---7---7---7--|
|-8---8---8---8--|-8---8---8---8--|-8---8---8---8--|-7---7---7---7--|
|-9---9---9---9--|-9---9---9---9--|-7---7---7---7--|-8---8---8---8--|
|-9--------------|----------------|----------------|----------------|
|-7--------------|----------------|----------------|----------------|
|----------------|----------------|----------------|----------------|


Chorus (play twice)
|--------0-------|----------------|----------------|----------------|
|--------0-------|----------------|---------7------|-8------7-------|
|----------------|-2--------------|----------------|----------------|
|----------------|-2-------5------|-4--------------|-5------4-------|
|-2--------------|-0--------------|-5--------------|----------------|
|-2--------------|----------------|----------------|----------------|



|-0-------0------|-0--------------|-2--------------|-2--------------|
|-1-------1------|-2--------------|-5--------------|-4--------------|
|-0-------0------|-0--------------|-2--------------|-2--------------|
|-2--------------|-2--------------|-4--------------|-4--------------|
|-3--------------|-1--------------|-2--------------|-2--------------|
|----------------|----------------|----------------|----------------|



Solo: now, for the first 4 bars, do that thing where you put your fingers on 
the strings, but don't push them down... I don't know the technical term, 
but I'm sure you know what I mean
|----------------|----------------|----------------|----------------|
|----------------|----------------|----------------|----------------|
|----------------|----------------|----------------|----------------|
|----------------|----------------|----------------|----------------|
|-2-2-2-2-2-2-2-2|-3-3-3-3-3-3-3-3|-6-6-6-6-6-6-6-6|6-6-6-6-7-8-9etc|
|-2-2-2-2-2-2-2-2|-3-3-3-3-3-3-3-3|-6-6-6-6-6-6-6-6|6-6-6-6-7-8-9etc|



|19---15-----15--|19---14-----14--|19---15-----15--|19---14-----14--|
|----------17--17|----------16--16|----------17--17|----------16--16|
|----------------|----------------|----------------|----------------|
|----------------|----------------|----------------|----------------|
|----------------|----------------|----------------|----------------|
|----------------|----------------|----------------|----------------|



|/19--15-----16--|/20--15---------|19---15---------|----------19----|
|----------17--17|----------17----|----------15----|16---19---------|
|----------------|--------------17|----------------|----------------|
|----------------|----------------|----------------|----------------|
|----------------|----------------|----------------|----------------|
|----------------|----------------|----------------|----------------|



|19---15-----16--|19---14-----14--|/19--/15------15|19---14-----14--|
|----------17--17|----------16--16|----------17----|----------16--16|
|----------------|----------------|----------------|----------------|
|----------------|----------------|----------------|----------------|
|----------------|----------------|----------------|----------------|
|----------------|----------------|----------------|----------------|



|/19--/15---15-19|20---15-------20|19---15---10----|-11--(11)-------|
|---------17-----|----------17----|----------------|-14-b-16--------|
|----------------|----------------|----------------|----------------|
|----------------|----------------|----------------|----------------|
|----------------|----------------|----------------|----------------|
|----------------|----------------|----------------|----------------|

Repeat Verse
Repeat Chorus

Play cool bit part II 3 times, except on the second time, 7th bar:
|-2-x-x-x---x--x-|
|-5-x-x-x---x--x-|
|-2-x-x-x---x--x-|
|-4-x-x-x---x--x-|
|-2-x-x-x---x--x-|
|----------------|


3rd time, bars 5 & 6
|-0--------------|-0--------------|
|-1--------------|-2--------------|
|-0-------2b3r2-0|-0-------2b3r2-0|
|-2--------------|-2--------------|
|-3--------------|-1--------------|
|----------------|----------------|


|-0--------------|
|-0--------------|
|-0--------------|
|-2--------------|
|-2--------------|
|-2--------------|
  development and support by
dmitry ivanov