rock
 
|tablatures   |lyrics   |discussion forums   |more tabs @ XGuitar.com

Muse tabs

New Born bass tab

song: new born
artist: muse
album: origin of symetry
originally tabbed by iain irvine (murv_69@hotmail.com)
corretced by aled jenkins (hiimdrunkwotsurname@hotmail.com)

Drop D tuning

Riff 1 this is for the verses and the solo
G|----9--------9-----
D|------7-9------7-9- X 5
A|--7--------7-------
D|-------------------

Then

G|----5--------5--------4-------4---------8--------8-----
D|------4-5------4-5------4-5-----4-5-----7-9------7-9-
A|--3-------3--------2--------2---------6--------6------
D|----------------------------------------------------



Riff 2-this is before the second verse, and at the end. Before the second 
verse, the guitar does it through once, then the bass joins for the second 
line, then it is twice through both lines.

G|----------------------------------------------------------------------
D|----------------------------------------------------------------------
A|---------------------0-0-0-0-3-0-3-4-5------5---------------------2-2-2-2
D|-2-2-2-2-5-2-5-6-----------------------0-0----0-0-3-4-5-5-5-5---------

G|------------------------------------------------------------------------
D|------------------------------------------------------------------------
A|-3-3-3-3-3-3-3-3-1-1-1-1-1-1-1-1-2-2-2-2-2-2-2-2-2-2-2-2-2-2-2-2
D|--------------------------------------------------------------------------

Riff 3- the chorus

G|------------------------------------------------------------------------
D|------------------------------------------------------------------------
A|--------------0-0-0-3---5-5-5---------------2---3-3-3---3-2-1-1-1---1-2-2-2---2-2-2-2
D|-2-2-2-5-------------------------0---5-5-5--------------------------------------

Then Riff 4 this is just before the solo
G|-------------------------------------------------------------------
D|-------------------------------------------------------------------
A|-------------------------------------------------------------------
D|-0-0-0-0-0-0-0-0-0-0-0-0-0-0-0-0-0-0-0-0-0-0-0-0-0-0-0-0-0-0-0-0-0-

Then it goes back into riff 1.

Order:

Riff 1 (verse 1)
Riff 2
Riff 1 (verse 2)
Riff 3 (first chorus)
Riff 4
Riff 1 (solo)
Riff 1 (verse 2)
Riff 3
Riff 2 repeated about 4 times until the end.

i think thats about right. feel free to send any further corrections to me 
or iain.
  development and support by
dmitry ivanov