rock
 
|tablatures   |lyrics   |discussion forums   |more tabs @ XGuitar.com

Muse tabs

Nature 1 guitar tab

Date: Mon, 18 Jun 2001 20:17:16 -0400
From: "Tom Woollan" 
Subject: m/muse/nature_1.tab

Tabbed by Tom Woollan
email: woollan@hotmail.com

Title: Nature_1
Record: B-side to Plug-In Baby
Artist: MUSE

*This is all my own work*

Here it is, listen to the cd to get the rhythm for the strumming right.

Intro.  (play 4 times)

|-0----0-0-0----0----0-0-0----0-0-|-0----0-0-0----0----0-0-0----0-0-|
|-2----2-2-2----2----2-2-2----0-2-|-3----3-3-3----3----3-3-3----3-0-|
|-2----2-2-2----2----2-2-2----2-2-|-3----3-3-3----3----3-3-3----3-0-|
|---------------------------------|---------------------------------|
|---------------------------------|---------------------------------|
|---------------------------------|---------------------------------|


Verse (play 8 times)

|-0----0-0-0----0----0-0-0----0-0-|-3----3-3-3----3----3-3-3----3-3-|
|-2----2-2-2----2----2-2-2----0-2-|-3----3-3-3----3----3-3-3----3-3-|
|-2----2-2-2----2----2-2-2----2-2-|-3----3-3-3----3----3-3-3----3-3-|
|-2----2-2-2----2----2-2-2----2-2-|-5----5-5-5----5----5-5-5----5-5-|
|-0----0-0-0----0----0-0-0----0-0-|-5----5-5-5----5----5-5-5----5-5-|
|---------------------------------|-3----3-3-3----3----3-3-3----3-3-|


Over the last 4 times of the above, guitar 2 plays: (pick each note 
repetitively as fast as you can)
|----------------|----------------|----------------|----------------|
|----------------|----------------|----------------|----------------|
|-2--------------|-3--------------|-6--------------|-7--------------|
|----------------|----------------|----------------|----------------|
|----------------|----------------|----------------|----------------|
|----------------|----------------|----------------|----------------|


|----------------|----------------|----------------|----------------|
|----------------|----------------|----------------|----------------|
|-9--------------|-7----6------3--|-2--------------|-3--------------|
|----------------|----------------|----------------|----------------|
|----------------|----------------|----------------|----------------|
|----------------|----------------|----------------|----------------|


Chorus:

|-5--------------|-3--------------|-5--------------|-3--------------|
|-7--------------|-3--------------|-7--------------|-3--------------|
|-7--------------|-3--------------|-7--------------|-3--------------|
|-7--------------|-5--------------|-7--------------|-5--------------|
|-5--------------|-5--------------|-5--------------|-5--------------|
|----------------|-3--------------|----------------|-3--------------|


|-5--------------|-3--------------|-5--------------|-3--------------|
|-7--------------|-3--------------|-7--------------|-3--------------|
|-7--------------|-3--------------|-7--------------|-3--------------|
|-7--------------|-5--------------|-7--------------|-5--------------|
|-5--------------|-5--------------|-5--------------|-5--------------|
|----------------|-3--------------|----------------|-3--------------|


Strum each chord in the same pattern as in the verse:
|-2--------------|-2--------------|-2--------------|-3--------------|
|-2--------------|-2--------------|-3--------------|-3--------------|
|-3--------------|-3--------------|-4--------------|-3--------------|
|-4--------------|-4--------------|-4--------------|-5--------------|
|-4--------------|-4--------------|-2--------------|-5--------------|
|-2--------------|-2--------------|----------------|-3--------------|


|-2--------------|-2--------------|-2--------------|-3--------------|
|-2--------------|-2--------------|-3--------------|-3--------------|
|-3--------------|-3--------------|-4--------------|-3--------------|
|-4--------------|-4--------------|-4--------------|-5--------------|
|-4--------------|-4--------------|-2--------------|-5--------------|
|-2--------------|-2--------------|----------------|-3--------------|



|-2--------------|-2--------------|-2--------------|-3--------------|
|-2--------------|-2--------------|-3--------------|-3--------------|
|-3--------------|-3--------------|-4--------------|-3--------------|
|-4--------------|-4--------------|-4--------------|-5--------------|
|-4--------------|-4--------------|-2--------------|-5--------------|
|-2--------------|-2--------------|----------------|-3--------------|


|-2--------------|-2--------------|-2--------------|-2--------------|
|-2--------------|-2--------------|-3--------------|-3--------------|
|-3--------------|-3--------------|-4--------------|-4--------------|
|-4--------------|-4--------------|-4--------------|-4--------------|
|-4--------------|-4--------------|-2--------------|-2--------------|
|-2--------------|-2--------------|----------------|----------------|


Verse 2: play intro twice, repeat verse 1 (guitars 1 & 2)
Chorus 2: repeat chorus


Interlude:

|----------------|----------------|----------------|----------------|
|----------------|----------------|----------------|----------------|
|----------------|----------------|----------------|----------------|
|----------------|----------------|----------------|----------------|
|----------------|----------------|----------------|----------------|
|-5-5-7b8-5-7b8--|-3-3-5b6-3-5b6--|-5-5-7b8-5-7b8--|-3-3-5b6-3-5b6--|


|----------------|----------------|----------------|----------------|
|----------------|----------------|----------------|----------------|
|----------------|----------------|----------------|----------------|
|----------------|----------------|----------------|----------------|
|----------------|----------------|----------------|----------------|
|-5-5-7b8-5-7b8--|-3-3-5b6-3-5b6--|-5-5-7b8-5-7b8--|-3-3-5b6-3-5b6--|



Guitar 1 (Use that strumming pattern again)
|-0--------------|-3--------------|-0--------------|-3--------------|
|-2--------------|-3--------------|-2--------------|-3--------------|
|-2--------------|-3--------------|-2--------------|-3--------------|
|-2--------------|-5--------------|-2--------------|-5--------------|
|-0--------------|-5--------------|-0--------------|-5--------------|
|----------------|-3--------------|----------------|-3--------------|
|                                                                   |
|Guitar 2                                                           |
|----------------|----------------|----------------|----------------|
|-2--------------|-3--------------|-5--------------|-6-----5-----3--|
|----------------|----------------|----------------|----------------|
|----------------|----------------|----------------|----------------|
|----------------|----------------|----------------|----------------|
|----------------|----------------|----------------|----------------|



Guitar 1
|-0--------------|-3--------------|-0--------------|-3--------------|
|-2--------------|-3--------------|-2--------------|-3--------------|
|-2--------------|-3--------------|-2--------------|-3--------------|
|-2--------------|-5--------------|-2--------------|-5--------------|
|-0--------------|-5--------------|-0--------------|-5--------------|
|----------------|-3--------------|----------------|-3--------------|
|                                                                   |
|Guitar 2                                                           |
|----------------|----------------|----------------|----------------|
|-5-----3-----2--|-3-----2--------|----------------|----------------|
|----------------|-------------3--|-2--------------|-3--------------|
|----------------|----------------|----------------|----------------|
|----------------|----------------|----------------|----------------|
|----------------|----------------|----------------|----------------|


Guitar 1
|-0-0--0-0--0-0--0-0-|-0-0-------------||
|-2-2--2-2--2-2--2-2-|-3-3-------------||
|-2-2--2-2--2-2--2-2-|-3-3-------------||
|-2-2--2-2--2-2--2-2-|-3-3-------------||
|-0-0--0-0--0-0--0-0-|-0-0-------------||
|--------------------|-----------------||

The end again.
  development and support by
dmitry ivanov