rock
 
|tablatures   |lyrics   |discussion forums   |more tabs @ XGuitar.com

Muse tabs

Jimmy Kane guitar tab

Artist: Muse
Song: Jimmy Kane
Tabbed by: MuseRock 04

Standart tuning.

Intro:

|-----------------------|
|-----------------------|
|-----7-8-9-8-7-8-7-----|
|--0--------------------|
|-----------------------|
|-----------------------| x3
Let notes ring.

Pre verse:

|-------------------|---------------------|---------------------|
|-------------------|---------------------|---------------------|
|-------------------|---------------------|---------------------|
|----9-7---------7--|------9-7---------7--|------9-7---------7--|
|--------9-7-7-9----|----------9-7-7-9----|----------9-7-7-9----|
|--7----------------|--7-7----------------|--7-7----------------|

|-----------------|
|-----------------|
|-----------------|
|------9-7--x-x---|
|-----------x-x---|
|--7-7------------|

Verse:

|--------------------|---------------|
|--------------------|---------------|
|--7--9—-9Full Bend--|--7--7--6----4-|
|--------------------|---------------|
|--------------------|---------------|
|--------------------|---------------|

|--------------------|--------------------------------0---|
|--------------------|---------------------------x-x--0---|
|--7--9—-9Full Bend--|--7--7--6----4 ½ Bend------x-x--0---|
|--------------------|---------------------------x-x------|
|--------------------|---------------------------x-x------|
|--------------------|------------------------------------|


|----------------------|
|----------------------|
|----------------------|
|--8---9-7---------7---|
|----8-----9-7-7-9-----|
|----------------------| x3

Fourth time play this:

|----------------------|
|----------------------|
|----------------------|
|--8---9-7------0------|
|----8-----9-7--0------|
|----------------------|




Pre Chorus:

        * Natural Har.
|-------5*-------------|----------------|
|------ 5*-------------|----------------|
|------ 5*-------------|------2 ½ Bend--|
|----------------------|----------------|
|----------------------|--0-0-----------|
|--0-0-----------------|----------------| x2

|-------0-------------|----------------|
|-------0-------------|----------------|
|-------0-------------|------2 ½ Bend--|
|---------------------|----------------|
|---------------------|--0-0-----------|
|--0-0----------------|----------------| x2

Pre Chorus end withs:

|------------------------|
|------------------------|
|------------------------|
|------------------------|
|------------------------|
|---5-5-5-5-5--3-0-3-----|

Chorus:

|--------------------|------------------|
|--------------------|------------------|
|--------------------|------------------|
|------2-1-0---------|------------------|
|--------------------|------------------|
|--0-0--------3-0-3--|-5-5-5-5-5--3-0-3-| x3

|--------------------|------------------------|
|--------------------|------------------------|
|--------------------|------------------------|
|------2-1-0---------|------------------------|
|--------------------|------------------------|
|--0-0--------3-0-3--|-5-5-5-5-5—6-7slide down|

Pre Verse 2:

|--5-----------------------------------|
|--4----4--------------4--------x-x----|
|--4-------3-------------4------x-x----|
|--x----------5------5------5----------|
|--5-----------------------------------|
|--------------------------------------|
Let ring all notes.

Bridge:

|------------------|
|------------------|
|------------------|
|------------------|
|------------------|
|--7-7-7-7-7-7-7-7-| x4

Outro:

|----------------------------|
|----------------------------|
|----------------------------|
|--x-x-x-x-x-x-x-x-x-x-x-----|
|--x-x-x-x-x-x-x-x-x-x-x-----|
|----------------------------|
Just mute 2 string and slide up and down.

After that play this part:

|--------------------------|
|--------------------------|
|--------------------------|
|--------------------------|
|--------------------------|
|--5-5-5-5-5--3-0-3--0-0---|

And this is all song. Here is order:

Intro
Pre Verse 1
Verse
Pre Chorus
Chorus
Pre Verse 2
Verse
Pre Chorus
Chorus
Bridge
Outro
  development and support by
dmitry ivanov