rock
 
|tablatures   |lyrics   |discussion forums   |more tabs @ XGuitar.com

Muse tabs

Jimmy Kane bass tab

Muse
"Jimmy Kane"
B-Side


Intro/Verse
G-|-----------------------|
D-|------9-7-----------7--|
A-|----------7-5-5h6h7----|
E-|--7-7------------------|
		 * * * triple-hammer


Pre-Chorus (w/distortion)
G-|----------------------|
D-|-------2-2-------2-2--|
A-|----------------------|
E-|--0-0-------0-0-------|


Chorus (w/distortion)
G-|----------------------|------------------|
D-|------2-0-------------|------------------|
A-|------------------0-0-|-0-0-0-0-------0--|
E-|--0-0-----2-0-2-3-----|---------2-0-2----|
  development and support by
dmitry ivanov