rock
 
|tablatures   |lyrics   |discussion forums   |more tabs @ XGuitar.com

Muse tabs

In Your World guitar tab

From: jimbowizbo@talk21.com
Date: Sat, 8 Jun 2002 21:25:37 GMT+01:00
Subject: m/muse/in_your_world.tab


ok no-ones tabbed any of this yet so this is my shot at it....... 
and yes it is all my own work for the copyright stuff

Artist: Muse
Title: In your world
Tabbist: Jimbob(JimboWiz@hotmail.com)

Note: Main riff + outro are just one pick followed by hammer-ons and pull-offs.


main riff:                   X3
--------------------------------|-------------------------------------------
--------------------------------|-------------------------------------------
--------------------------------|-------------------------------------------
--------------------------------|-------------------------------------------
--------------------------------|-------------------------------------------
-5-0-10-0-8-0-7-0-5-0-4-0-5-0-7-|--5-0-4-0-5-0-7-0-8-0-10-0-8-10-0-7-0-5~---


pre-chorus:

------------------------------------------------
------------------------------------------------
------------------------------------------------
-5--7--9--10--9--------10-10--------------------
-3--5--7--8---7--------8--8---------------------
------------------------------------------------

chorus:

-----------------------------------------------------------------
-----------------------------------------------------------------
-----------------------------------------------------------------
-5--5-5-5--10--10--5--5-5-5--9-9--2--2-2-2--9-9--2--2-2-2--10-10---
-3--3-3-3--8---8---3--3-3-3--7-7--0--0-0-0--7-7--0--0-0-0--8-8---
-----------------------------------------------------------------

outro:

E-5-0-4-0-5-0-7-0-8-0-7-0-10-0-12-0-10-0-12-0-13-0-12-0-10-0-12-0-13-0-

E-15-0-13-0-12-0-13-0-12-0-10-0-12-0-10-0-12-0-10-0-8-0-7-0-8-0-10-0-8-0-7-0-5-



ORDER:

piano-ish bit
main riff X 1
verse
prechorus X 1
Chorus X 3
main riff X 1
verse 
pre-chorus X 1
chorus X 3
main riff X 1 (without last ~)
outro X 1
  development and support by
dmitry ivanov