rock
 
|tablatures   |lyrics   |discussion forums   |more tabs @ XGuitar.com

Muse tabs

In Your World bass tab

Song: In Your World
Artist: Muse
Album: None yet
Tabbed by: Richard Grantham (shock.r@freeuk.com)

The live version is on the Hullabaloo Soundtrack which has also been tabbed.
I worked this out from this CD single.  It sounds right to me. Any comments, 
drop me a line.

The order is pretty simple:

Intro
Verse
Chorus
Bridge
Verse
Chorus
Ending

Intro/Bridge

G|----------------|----------------|----------------|----------------|
D|----------------|------------9-10|0-0-0-0-0-0-5-7-|----------------|
A|0-0-0-0-0-0-5-7-|8-8-8-8-8-8-----|----------------|7-7-7-7-7-7-----|
E|----------------|----------------|----------------|------------8-7-|

Verse

G|----------------|----------------|----------------|----------------|
D|----------------|------------9-10|0-0-0-0-0-0-5-7-|------------7-9-|
E|0-0-0-0-0-0-5-7-|8-8-8-8-8-8-----|----------------|7-7-7-7-7-7-----|
A|----------------|----------------|----------------|----------------|

G|----------------|----------------|----------------|----------------|
D|----------------|------------9-10|0-0-0-0-0-0-5-7-|----------------|
A|0-0-0-0-0-0-5-7-|8-8-8-8-8-8-----|----------------|7-7-7-7-7-7-----|
E|----------------|----------------|----------------|------------8-7-|

G|----------------|----------------|----------------|----------------|
D|----------------|----------------|7-------7-------|6-------6-------|
A|--------5-----5-|7---5-7-8-5-7-8-|--8-7-8---8-7-8-|--8-7-8---8-8---|
E|8-5-7-8---8-7---|--8-------------|----------------|--------------8-|
								  PM
Chorus

G|----------------|----------------|----------------|----------------|
D|----------------|----------------|----------------|----------------|
A|----------8-8---|----------7-7---|----------7-7---|----------8-8---|
E|8---8-8-8-----8-|8---8-8-8-----5-|5---5-5-5-----5-|5---5-5-5-----8-|
	       PM		PM		 PM		  PM
G|----------------|----------------|----------------|----------------|
D|----------------|----------------|----------------|----------------|
A|----------8-8---|----------7-7---|----------7-7---|----------8-8---|
E|8---8-8-8-----8-|8---8-8-8-----5-|5---5-5-5-----5-|5---5-5-5-----8-|
	       PM		PM		 PM		  PM
G|----------------|----------------|----------------|----------------|
D|----------------|----------------|----------------|----------------|
A|----------8-8---|----------7-7---|----------7-7---|----------8-8-8-|
E|8---8-8-8-----8-|8---8-8-8-----5-|5---5-5-5-----5-|5---5-5-5-------|
	       PM		PM		 PM
Ending

G|----------------|----------------|----------------|----------------|
D|----------------|----------------|----------------|----------------|
A|0-0-0-0-0-0-0-0-|8-8-8-8-8-8-8-8-|5-5-5-5-5-5-5-5-|7-7-7-7-7-7-7-7-|
E|----------------|----------------|----------------|----------------|

G|----------------|----------------|----------------|----------------|
D|----------------|----------------|----------------|----------------|
A|0-0-0-0-0-0-0-0-|8-8-8-8-8-8-8-8-|5-5-5-5-5-5-5-5-|7-7-7-7-7-7-7-7-|
E|----------------|----------------|----------------|----------------|

G|----------------|
D|----------------|
A|0---------------|
E|----------------|

If you fancy helping out the guitar when it comes in after the piano
intro to give it a bit more clout you can to this:

G|----------------------|----------------------|----------------------|
D|---12-10-9----------9-|---12-10-9----------9-|---12-10-9----------9-|
A|12---------12-11-12---|12---------12-11-12---|12---------12-11-12---|
E|----------------------|----------------------|----------------------|

G|----------------------|
D|---------9-10-12-10-9-|
A|12-11-12--------------|
E|----------------------|
  development and support by
dmitry ivanov