rock
 
|tablatures   |lyrics   |discussion forums   |more tabs @ XGuitar.com

Muse tabs

Hysteria bass tab

Artist: Muse
Song: Hysteria
Album: Absolution

Standard tuning (E,A,D,G)



*Verse
|----------------------------------------------------------------
|-----5---5-7---5-------------------------------5-------5-5---5-7
|-0-0---0-----0---0-7-0-8-8-7-5-7-----5---5-7-------7-------7----
|---------------------------------0-0---0-----0---0---0----------

----------------------------------------------------------------------|
-0-0-10-0-10-12-0-10-0-10-9-0-9-8-0-8-7---5---5-7---5-----------------|
----------------------------------------0---0-----0---0-7-0-8-8-7-5-7-|
----------------------------------------------------------------------|


*First Chorus
|---5-3h5----5-3h53---------------------7-5h7----7-5h75------------------
|--------------------5-3h5----5-3h53--0------00-0---------7-5h7----7-5h75
|-3------33-3-------------------------------------------0------00-0------
|------------------3------33-3-------------------------------------------

---5-3h5----5-3h53---------------------7-5h7----7-5h75
--------------------5-3h5----5-3h53--0------00-0------
-3------33-3------------------------------------------
------------------3------33-3-------------------------

--------------------------------|
--------------5-------5-5---5-7-|
----5---5-7-------7-------7-----|
0-0---0-----0---0---0-----------|


*Second Chorus
|---5-3h5----5-3h53---------------------7-5h7----7-5h75-------------------
|--------------------5-3h5----5-3h53--0------00-0---------7-5h7----7-5h75-
|-3------33-3-------------------------------------------0------00-0-------
|------------------3------33-3--------------------------------------------

---5-3h5----5-3h53---------------------7-5h7----7-5h75--------------------
--------------------5-3h5----5-3h53--0------00-0---------7-5h7------------
-3------33-3-------------------------------------------0------00-00000----
------------------3------33-3-----------------------------------------12\0
                                            
--------------------------------------|
--------------------------------------|
--------------------------------------|
-0-0-10-0-10-12-0-10-0-10-9-0-9-8-0-8-|

   (x2):
|--------------------------------------|
|--------------------------------------|
|--------------------------------------|
|-7-0-10-0-10-12-0-10-0-10-9-0-9-8-0-8-|

     and then:
|---------------------------------|
|---------------5-------5-5---5-7-|
|-----5---5-7-------7-------7-----|
|-7-0---0-----0---0---0-----------|


During guitar solo: verse and chorus. 
Second chorus
Final:

|--------------------------------------|
|--------------------------------------|
|--------------------------------------|
|-0-0-10-0-10-12-0-10-0-10-9-0-9-8-0-8-|

   (x5): 
                                                            
|--------------------------------------|-----|
|--------------------------------------|-----|
|--------------------------------------|-----|
|-7-0-10-0-10-12-0-10-0-10-9-0-9-8-0-8-|-7/0-|
                
                                          End

I know, i know, its not perfect, but the verse riff is ok.
It's not perfectly explained, just listen to the song to 
place
each part
Transcribed by Hector Ordas (hordas@ozu.es) 
--------------------------------------------------
  development and support by
dmitry ivanov