rock
 
|tablatures   |lyrics   |discussion forums   |more tabs @ XGuitar.com

Muse tabs

Hyper Music guitar tab

Author/Artist: Muse
Title: Hypermusic
Album: Origin of Symetry
Transcribed by: Steve
Email: shrinkinguniverse@hotmail.com

This is in drop-d as with most of their heivier stuff
I have transcribed the intro, the main rif and the verses
on the second verse, piss around with arpegios of the chords

------------------------------------------------------------------------------
----6----6--------------------------------------------------------------------
----5----5--5-4-3-------------------------------------------------------------
----4----4--------------------------------------------------------------------
-5--5--5-5--------------------------------------------------------------------
-0-----0----------------------------------------------------------------------
                                                                              

------------------------------------------------------------------------------
----6----6------------6----6--------------------------------------------------
----5----5------------5----5--------------------------------------------------
----4----4------------4----4--------------------------------------------------
-5--5--5-5----3-5--5--5--5-5--3-2-1-------------------------------------------
-0-----0----5------0-----0----------------------------------------------------
                                                                              

-10-10-10-10-10-10-10-10-10-10-10-10-10-10-10-10------------------------------
-10-10-10-10-10-10-10-10-10-10-10-10-10-10-10-10------------------------------
-10-10-10-10-10-10-10-10-10-10-10-10-10-10-10-10------------------------------
-12-12-12-12-12-12-12-12-12-12-12-12-12-12-12-12------------------------------
------------------------------------------------------------------------------
------------------------------------------------------------------------------
                                                                              

-12-12-12-12-12-12-12-12-12-12-12-12-12-12-12-12------------------------------
-13-13-13-13-13-13-13-13-13-13-13-13-13-13-13-13------------------------------
-14-14-14-14-14-14-14-14-14-14-14-14-14-14-14-14------------------------------
------------------------------------------------------------------------------
------------------------------------------------------------------------------
------------------------------------------------------------------------------
                                                                              

-10-10-10-10-10-10-10-10-10-10-10-10-10-10-10-10------------------------------
-12-12-12-12-12-12-12-12-12-12-12-12-12-12-12-12------------------------------
-12-12-12-12-12-12-12-12-12-12-12-12-12-12-12-12------------------------------
------------------------------------------------------------------------------
------------------------------------------------------------------------------
------------------------------------------------------------------------------
                                                                              

-10-10-10-10-10-10-10-10-10-10-10-10-10-10-10-10------------------------------
-11-11-11-11-11-11-11-11-11-11-11-11-11-11-11-11------------------------------
-12-12-12-12-12-12-12-12-12-12-12-12-12-12-12-12------------------------------
------------------------------------------------------------------------------
------------------------------------------------------------------------------
------------------------------------------------------------------------------
                                                                              

                                                                              
===========================================================================
===========================================================================
===========================================================================
===========================================================================
===========================================================================



Tabbed by me at woollan@hotmail.com

Title: Hyper Music
Album: Origin of Symmetry
Artist: MUSE

This is all my own work

Hello Musicals, congrats on your excellent taste in music by the way.
PS To save on me having to say it later, when I say mute, it means to put 
your fingers on the strings, but not actually put any pressure on...I'm not 
sure if mute is the right word for it, but I think its pretty obvious what I 
mean.
Drop D tuning and here we go...


Intro
|----8---7-8-7-6-|----8---7-8-7-6-|----8---7-8-7-6-|----8-----------|
|----7---7-7-7-6-|----8---7-7-7-6-|----8---7-7-7-6-|----8-----------|
|----7-----------|----7-----------|----7-----------|----7---7-7-7-7-|
|----------------|----------------|----------------|----------------|
|-0--------------|-0--------------|-0--------------|-0--------------|
|-0--------------|-0--------------|-0--------------|-0--------------|



|----------------|----------------|----------------|----------------|
|----------------|----------------|----------------|----------------|
|----------------|----------------|----------------|----------------|
|----10------5-7-|----10----------|----10------5-7-|----10----------|
|-0--8---3-5-3-5-|-0--8---9-10-9-7|-0--8---3-5-3-5-|-0--8---9-10-9-7|
|-0------3-5-----|-0------9-10-9-7|-0------3-5-----|-0------9-10-9-7|



|----------------|----------------|----------------|----------------|
|----------------|----------------|----------------|----------------|
|----------------|----------------|----------------|----------------|
|----10------5-7-|----10----------|----10------5-7-|----10----------|
|-0--8---3-5-3-5-|-0--8---9-10-9-7|-0--8---3-5-3-5-|-0--8---9-10-9-7|
|-0------3-5-----|-0------9-10-9-7|-0------3-5-----|-0------9-10-9-7|



|10-10-10-10-10-10-10-10|10-10-10-10-10-10-10-10|
|10-10-10-10-10-10-10-10|10-10-10-10-10-10-10-10|
|10-10-10-10-10-10-10-10|10-10-10-10-10-10-10-10|
|-----------------------|-----------------------|
|-----------------------|-----------------------|
|-----------------------|-----------------------|


Verse part I (Play 5 times)
|10-10-10-10-10-10-10-10|8-8-8-8-8-8-8-8|7-7-7-7-7-7-7-7|
|10-10-10-10-10-10-10-10|8-8-8-8-8-8-8-8|8-8-8-8-8-8-8-8|
|10-10-10-10-10-10-10-10|9-9-9-9-9-9-9-9|7-7-7-7-7-7-7-7|
|-----------------------|---------------|---------------|
|-----------------------|---------------|---------------|
|-----------------------|---------------|---------------|


                  Part II
|-6-6-6-6-6-6-6-6|10-10-10-10-10-10-10-10|8-8-8-8-8-8-8-8|-7--------|
|-8-8-8-8-8-8-8-8|10-10-10-10-10-10-10-10|8-8-8-8-8-8-8-8|-8--------|
|-7-7-7-7-7-7-7-7|10-10-10-10-10-10-10-10|8-8-8-8-8-8-8-8|-7--------|
|----------------|-----------------------|---------------|----------|
|----------------|-----------------------|---------------|----------|
|----------------|-----------------------|---------------|----------|


mute - - - - - - |
|----------------|
|----------------|
|----------------|
|----------------|
|-3-3-3-3-3-3-3-3|
|-3-3-3-3-3-3-3-3|

Chorus: Repeat intro


Verse 2 (wait 4 bars)
|----------------|----------------|----------------|----------------|
|----------------|----------------|----------------|----------------|
|----------------|----------------|--------10-9--7-|-10-9--7--------|
|----------------|----------------|----------------|----------------|
|----------------|----------------|----------------|----------------|
|----------------|----------------|----------------|----------------|



|10------10------|-8-------8------|-7-------7------|-6-------6------|
|--10--10--10--10|---8---8---8---8|---8---8---8---8|---8---7---8---8|
|----10------10--|-----9-------9--|-----7-------7--|-----7-------7--|
|----------------|----------------|----------------|----------------|
|----------------|----------------|----------------|----------------|
|----------------|----------------|----------------|----------------|


                                                   mute - - - - - - |
|10------10------|-8-------8------|-7--------------|----------------|
|--10--10--10--10|---8---8---8---8|-8--------------|----------------|
|----10------10--|-----9-------9--|-7--------------|----------------|
|----------------|----------------|----------------|----------------|
|----------------|----------------|----------------|-3-3-3-3-3-3-3-3|
|----------------|----------------|----------------|-3-3-3-3-3-3-3-3|


Chorus 2
|----8---7-8-7-6-|----8---7-8-7-6-|----8---7-8-7-6-|----8-----------|
|----7---7-7-7-6-|----8---7-7-7-6-|----8---7-7-7-6-|----8-----------|
|----7-----------|----7-----------|----7-----------|----7-------7-7-|
|----------------|----------------|----------------|----------------|
|-0--------------|-0--------------|-0--------------|-0--------------|
|-0--------------|-0--------------|-0--------------|-0--------------|



|----------------|----------------|----------------|----------------|
|----------------|----------------|----------------|----------------|
|----------------|----------------|----------------|----------------|
|----10------5-7-|----10----------|----10------5-7-|----10----------|
|-0--8---3-5-3-5-|-0--8---9-10-9-7|-0--8---3-5-3-5-|-0--8---9-10-9-7|
|-0------3-5-----|-0------9-10-9-7|-0------3-5-----|-0------9-10-9-7|


|----------------|----------------|----------------|----------------|
|----------------|----------------|----------------|----------------|
|----------------|----------------|----------------|----------------|
|----10------5-7-|----10----------|----10------5-7-|----10----------|
|-0--8---3-5-3-5-|-0--8---9-10-9-7|-0--8---3-5-3-5-|-0--8---9-10-9-7|
|-0------3-5-----|-0------9-10-9-7|-0------3-5-----|-0------9-10-9-7|


Solo
|----8-----------|----8-----------|----8-----------|----8---7--(7)--|
|----7-----------|----7-----------|----7-----------|----7---8b9r8p6-|
|----7-----6-6-6-|----7-----6-6-6-|----7-----6-6-6-|----7----------7|
|----------------|----------------|----------------|----------------|
|-0--------------|-0--------------|-0--------------|-0--------------|
|-0--------------|-0--------------|-0--------------|-0--------------|



|----------------|----8---7--(7)--|----------------|----8-----------|
|-6--------------|----7---8b9r8p6-|-6-8------------|----7---9-8p6-3-|
|---7------------|----7----------7|----------------|----7-----------|
|------------5-7-|----------------|------------5-7-|----------------|
|--------3-5-3-5-|-0--------------|--------3-5-3-5-|-0--------------|
|--------3-5-----|-0--------------|--------3-5-----|-0--------------|



|----------------|----------------|----------------|----------------|
|-5b6-------6b5--|etc-------------|----------------|----------------|
|----------------|----------------|----------------|----------------|
|----------------|----------------|----------------|----------------|
|----------------|----------------|----------------|----------------|
|----------------|----------------|----------------|----------------|

And remember:  Practice makes perfect, but if you practice too much, your 
fingers get sore.
  development and support by
dmitry ivanov