rock
 
|tablatures   |lyrics   |discussion forums   |more tabs @ XGuitar.com

Muse tabs

Hate This & I'll Love You bass tab

Song: Hate This & I'll Love You
Artist: Muse
Album: Showbiz
Tabbed by: L.A.

I have this with the E string tuned in D, but that's just because I'm lazy 
and didn't retune it from the last thing I did. So if you don't want to tune 
down to D, just play everything on the E string two frets lower. If you 
aren't clear about that, just email me: dumbassLA@users.basstabarchive.com

No bass in the intro or most of the first verse, that's a piano.

End of 1st Verse "everything I had..."
G|------------|
D|-5-4--7-5-0-|
A|------------|
D|------------|

Chorus "Like I was born..."		"growing by the hour..."
G|-----------------------------|-----------------|
D|-----------------------------|-----------------|
A|-7-77777\22222---------------|-----------------|
D|---------------444444-444444-|-222222-444444-9-|

Verse (play twice per verse)
G|--------------|
D|-7-5-4--7-5-0-|
A|--------------|
D|--------------|

Bridge "I'm growing strong in every way..."  "yeah..."
G|-----------------------------------------|---------------------|-----------------|
D|-----------------------------------------|*-------------------*|-----------------|
A|-----------------------------------------|*-------------------*|-----------------|
D|-9-999-999\7-777-777-6-666-666-5-555-555-|-2-222-222-5-555-555-|-222222-444444-9-|

"You led me on..."
G|----------------|
D|-9-7-5-4--7-5\0-|
A|----------------|
D|----------------|

Interlude = verse riff x2, then play chorus, then bridge without repeating 
the designated measure

Outro
G|--------------------------------------|---|
D|--------------------------------------|---|
A|-------------------------------555555-|---|
D|-999999-777777-555555-444444-7--------|-7-|
  development and support by
dmitry ivanov